ISO-10303-21;
HEADER;
FILE_DESCRIPTION (( 'STEP AP203' ),
    '1' );
FILE_NAME ('960446.step',
    '2023-09-27T08:29:46',
    ( '' ),
    ( '' ),
    'SwSTEP 2.0',
    'SolidWorks 2022',
    '' );
FILE_SCHEMA (( 'CONFIG_CONTROL_DESIGN' ));
ENDSEC;

DATA;
#1 = DIRECTION ( 'NONE',  ( 1.000000000000000000, 0.000000000000000000, -3.491481338843132961E-15 ) ) ;
#2 = ORIENTED_EDGE ( 'NONE', *, *, #38, .F. ) ;
#3 = DIRECTION ( 'NONE',  ( 1.000000000000000000, 0.000000000000000000, -4.625929269271490844E-15 ) ) ;
#4 = ADVANCED_FACE ( 'NONE', ( #369, #339 ), #366, .T. ) ;
#5 = CARTESIAN_POINT ( 'NONE',  ( 1.326762908760390423E-13, 0.000000000000000000, 38.00000000000000000 ) ) ;
#6 = APPLICATION_CONTEXT ( 'configuration controlled 3d designs of mechanical parts and assemblies' ) ;
#7 = CARTESIAN_POINT ( 'NONE',  ( 1.316288464743861212E-13, 0.000000000000000000, 37.69999999999999574 ) ) ;
#8 = AXIS2_PLACEMENT_3D ( 'NONE', #352, #195, #225 ) ;
#9 = CARTESIAN_POINT ( 'NONE',  ( 1.326762908760390423E-13, 0.000000000000000000, 38.00000000000000000 ) ) ;
#10 = AXIS2_PLACEMENT_3D ( 'NONE', #5, #278, #246 ) ;
#11 = DIRECTION ( 'NONE',  ( 1.000000000000000000, 0.000000000000000000, -3.491481338843132961E-15 ) ) ;
#12 = PRODUCT_DEFINITION ( 'UNKNOWN', '', #393, #221 ) ;
#13 = DIRECTION ( 'NONE',  ( 3.491481338843133355E-15, -0.000000000000000000, 1.000000000000000000 ) ) ;
#14 = AXIS2_PLACEMENT_3D ( 'NONE', #277, #119, #371 ) ;
#15 = FACE_OUTER_BOUND ( 'NONE', #395, .T. ) ;
#16 = PRODUCT_DEFINITION_SHAPE ( 'NONE', 'NONE',  #12 ) ;
#17 = CARTESIAN_POINT ( 'NONE',  ( 6.459240476859788030E-15, 0.000000000000000000, 1.849999999999997424 ) ) ;
#18 = FACE_BOUND ( 'NONE', #360, .T. ) ;
#19 = CIRCLE ( 'NONE', #239, 0.1695299461620742298 ) ;
#20 = CIRCLE ( 'NONE', #117, 0.2849999999999999756 ) ;
#21 = APPROVAL_DATE_TIME ( #362, #142 ) ;
#22 = FACE_OUTER_BOUND ( 'NONE', #265, .T. ) ;
#23 = ADVANCED_FACE ( 'NONE', ( #86, #121 ), #287, .T. ) ;
#24 = ORIENTED_EDGE ( 'NONE', *, *, #209, .F. ) ;
#25 = DIRECTION ( 'NONE',  ( 1.000000000000000000, 0.000000000000000000, 0.000000000000000000 ) ) ;
#26 = DIRECTION ( 'NONE',  ( 3.491481338843133355E-15, -0.000000000000000000, 1.000000000000000000 ) ) ;
#27 = DIRECTION ( 'NONE',  ( 3.491481338843133355E-15, -0.000000000000000000, 1.000000000000000000 ) ) ;
#28 = CC_DESIGN_SECURITY_CLASSIFICATION ( #213, ( #393 ) ) ;
#29 = EDGE_LOOP ( 'NONE', ( #53 ) ) ;
#30 = CARTESIAN_POINT ( 'NONE',  ( 2.483568312198036186E-14, 0.000000000000000000, 7.113222357994733791 ) ) ;
#31 = ORIENTED_EDGE ( 'NONE', *, *, #147, .F. ) ;
#32 = ADVANCED_FACE ( 'NONE', ( #306, #34 ), #150, .T. ) ;
#33 =( NAMED_UNIT ( * ) PLANE_ANGLE_UNIT ( ) SI_UNIT ( $, .RADIAN. ) );
#34 = FACE_OUTER_BOUND ( 'NONE', #298, .T. ) ;
#35 = CONICAL_SURFACE ( 'NONE', #313, 0.1695299461620742298, 1.047197551196602738 ) ;
#36 = AXIS2_PLACEMENT_3D ( 'NONE', #394, #234, #363 ) ;
#37 = CARTESIAN_POINT ( 'NONE',  ( 0.1250000000000061340, 0.000000000000000000, 1.849999999999996980 ) ) ;
#38 = EDGE_CURVE ( 'NONE', #341, #341, #109, .T. ) ;
#39 = FACE_BOUND ( 'NONE', #80, .T. ) ;
#40 = FACE_OUTER_BOUND ( 'NONE', #390, .T. ) ;
#41 = CARTESIAN_POINT ( 'NONE',  ( 1.076540079476635283E-15, 0.000000000000000000, 0.3083333333333340698 ) ) ;
#42 = VERTEX_POINT ( 'NONE', #151 ) ;
#43 = CIRCLE ( 'NONE', #353, 0.2849999999999999756 ) ;
#44 = DIRECTION ( 'NONE',  ( 3.491481338843133355E-15, -0.000000000000000000, 1.000000000000000000 ) ) ;
#45 = DIRECTION ( 'NONE',  ( 3.491481338843133355E-15, -0.000000000000000000, 1.000000000000000000 ) ) ;
#46 = APPROVAL_PERSON_ORGANIZATION ( #358, #94, #356 ) ;
#47 = COORDINATED_UNIVERSAL_TIME_OFFSET ( 1, 0, .AHEAD. ) ;
#48 = CARTESIAN_POINT ( 'NONE',  ( 1.396592535537253342E-15, 0.1695299461620741743, 0.3999999999999999667 ) ) ;
#49 = AXIS2_PLACEMENT_3D ( 'NONE', #286, #351, #69 ) ;
#50 = APPROVAL_STATUS ( 'not_yet_approved' ) ;
#51 = EDGE_LOOP ( 'NONE', ( #337 ) ) ;
#52 = APPROVAL_STATUS ( 'not_yet_approved' ) ;
#53 = ORIENTED_EDGE ( 'NONE', *, *, #346, .F. ) ;
#54 = FACE_OUTER_BOUND ( 'NONE', #370, .T. ) ;
#55 = ORIENTED_EDGE ( 'NONE', *, *, #214, .F. ) ;
#56 = AXIS2_PLACEMENT_3D ( 'NONE', #319, #73, #197 ) ;
#57 = AXIS2_PLACEMENT_3D ( 'NONE', #210, #143, #179 ) ;
#58 = ADVANCED_FACE ( 'NONE', ( #310, #314 ), #35, .T. ) ;
#59 = EDGE_LOOP ( 'NONE', ( #24 ) ) ;
#60 = EDGE_LOOP ( 'NONE', ( #304 ) ) ;
#61 = FACE_OUTER_BOUND ( 'NONE', #139, .T. ) ;
#62 = DIRECTION ( 'NONE',  ( 3.491481338843133355E-15, -0.000000000000000000, 1.000000000000000000 ) ) ;
#63 = ADVANCED_FACE ( 'NONE', ( #40, #65 ), #244, .T. ) ;
#64 = CIRCLE ( 'NONE', #345, 1.199999999999993516 ) ;
#65 = FACE_OUTER_BOUND ( 'NONE', #108, .T. ) ;
#66 = DIRECTION ( 'NONE',  ( 3.491481338843133355E-15, -0.000000000000000000, 1.000000000000000000 ) ) ;
#67 = DIRECTION ( 'NONE',  ( -3.491481338843133355E-15, 0.000000000000000000, -1.000000000000000000 ) ) ;
#68 = EDGE_CURVE ( 'NONE', #122, #122, #64, .T. ) ;
#69 = DIRECTION ( 'NONE',  ( 1.000000000000000000, 0.000000000000000000, -3.471349061028150487E-15 ) ) ;
#70 = DIRECTION ( 'NONE',  ( 1.000000000000000000, 0.000000000000000000, -3.491481338843133355E-15 ) ) ;
#71 = CC_DESIGN_APPROVAL ( #185, ( #393 ) ) ;
#72 = DATE_AND_TIME ( #330, #161 ) ;
#73 = DIRECTION ( 'NONE',  ( 3.491481338843133355E-15, -0.000000000000000000, 1.000000000000000000 ) ) ;
#74 = DIRECTION ( 'NONE',  ( 3.491481338843133355E-15, -0.000000000000000000, 1.000000000000000000 ) ) ;
#75 = CC_DESIGN_PERSON_AND_ORGANIZATION_ASSIGNMENT ( #255, #167, ( #391 ) ) ;
#76 = EDGE_LOOP ( 'NONE', ( #275 ) ) ;
#77 = COORDINATED_UNIVERSAL_TIME_OFFSET ( 1, 0, .AHEAD. ) ;
#78 = AXIS2_PLACEMENT_3D ( 'NONE', #146, #27, #3 ) ;
#79 = DIRECTION ( 'NONE',  ( 1.000000000000000000, 0.000000000000000000, 0.000000000000000000 ) ) ;
#80 = EDGE_LOOP ( 'NONE', ( #170 ) ) ;
#81 = EDGE_LOOP ( 'NONE', ( #206 ) ) ;
#82 = DIRECTION ( 'NONE',  ( 3.491481338843133355E-15, -0.000000000000000000, 1.000000000000000000 ) ) ;
#83 = EDGE_LOOP ( 'NONE', ( #2 ) ) ;
#84 = LOCAL_TIME ( 10, 29, 46.00000000000000000, #163 ) ;
#85 = PLANE ( 'NONE',  #203 ) ;
#86 = FACE_BOUND ( 'NONE', #235, .T. ) ;
#87 = EDGE_CURVE ( 'NONE', #181, #181, #89, .T. ) ;
#88 = CARTESIAN_POINT ( 'NONE',  ( 0.1695299461620748127, 0.000000000000000000, 0.1750000000000009603 ) ) ;
#89 = CIRCLE ( 'NONE', #96, 0.2849999999999999756 ) ;
#90 = CIRCLE ( 'NONE', #359, 0.1262286759728522556 ) ;
#91 = CARTESIAN_POINT ( 'NONE',  ( 1.018348723829256169E-15, 0.000000000000000000, 0.2916666666666692387 ) ) ;
#92 = CARTESIAN_POINT ( 'NONE',  ( 6.110092342975536620E-16, 0.000000000000000000, 0.1750000000000015432 ) ) ;
#93 = APPLICATION_PROTOCOL_DEFINITION ( 'international standard', 'config_control_design', 1994, #383 ) ;
#94 = APPROVAL ( #52, 'UNSPECIFIED' ) ;
#95 = CARTESIAN_POINT ( 'NONE',  ( 0.000000000000000000, 0.000000000000000000, 0.000000000000000000 ) ) ;
#96 = AXIS2_PLACEMENT_3D ( 'NONE', #41, #152, #281 ) ;
#97 = DIRECTION ( 'NONE',  ( 3.491481338843133355E-15, -0.000000000000000000, 1.000000000000000000 ) ) ;
#98 = DIRECTION ( 'NONE',  ( 3.491481338843133355E-15, -0.000000000000000000, 1.000000000000000000 ) ) ;
#99 = EDGE_CURVE ( 'NONE', #308, #308, #316, .T. ) ;
#100 = CARTESIAN_POINT ( 'NONE',  ( 1.396592535537244862E-15, 0.000000000000000000, 0.3999999999999975797 ) ) ;
#101 = AXIS2_PLACEMENT_3D ( 'NONE', #7, #67, #123 ) ;
#102 = AXIS2_PLACEMENT_3D ( 'NONE', #48, #168, #104 ) ;
#103 = DATE_AND_TIME ( #107, #84 ) ;
#104 = DIRECTION ( 'NONE',  ( -1.000000000000000000, 0.000000000000000000, 3.491481338843133355E-15 ) ) ;
#105 = PERSON_AND_ORGANIZATION_ROLE ( 'classification_officer' ) ;
#106 = ADVANCED_FACE ( 'NONE', ( #18, #131 ), #295, .F. ) ;
#107 = CALENDAR_DATE ( 2023, 27, 9 ) ;
#108 = EDGE_LOOP ( 'NONE', ( #115 ) ) ;
#109 = CIRCLE ( 'NONE', #266, 0.1695299461620742021 ) ;
#110 = LOCAL_TIME ( 10, 29, 46.00000000000000000, #291 ) ;
#111 = SECURITY_CLASSIFICATION_LEVEL ( 'unclassified' ) ;
#112 = ORIENTED_EDGE ( 'NONE', *, *, #288, .F. ) ;
#113 = DIRECTION ( 'NONE',  ( -1.000000000000000000, 0.000000000000000000, 3.491481338843133355E-15 ) ) ;
#114 = ORIENTED_EDGE ( 'NONE', *, *, #180, .F. ) ;
#115 = ORIENTED_EDGE ( 'NONE', *, *, #147, .T. ) ;
#116 = CIRCLE ( 'NONE', #169, 0.1695299461620741743 ) ;
#117 = AXIS2_PLACEMENT_3D ( 'NONE', #355, #320, #199 ) ;
#118 = PRODUCT_RELATED_PRODUCT_CATEGORY ( 'detail', '', ( #391 ) ) ;
#119 = DIRECTION ( 'NONE',  ( 3.491481338843133355E-15, -0.000000000000000000, 1.000000000000000000 ) ) ;
#120 = CARTESIAN_POINT ( 'NONE',  ( 0.1262286759728522556, 0.000000000000000000, -4.407250665860902104E-16 ) ) ;
#121 = FACE_OUTER_BOUND ( 'NONE', #323, .T. ) ;
#122 = VERTEX_POINT ( 'NONE', #245 ) ;
#123 = DIRECTION ( 'NONE',  ( -1.000000000000000000, 0.000000000000000000, 4.625929269271496366E-15 ) ) ;
#124 = AXIS2_PLACEMENT_3D ( 'NONE', #357, #328, #79 ) ;
#125 = FACE_OUTER_BOUND ( 'NONE', #59, .T. ) ;
#126 = CARTESIAN_POINT ( 'NONE',  ( 1.500000000000127898, 0.000000000000000000, 37.69999999999998863 ) ) ;
#127 = MANIFOLD_SOLID_BREP ( 'Corps-Déplacer/Copier1', #257 ) ;
#128 = VERTEX_POINT ( 'NONE', #274 ) ;
#129 = ORIENTED_EDGE ( 'NONE', *, *, #377, .F. ) ;
#130 = CARTESIAN_POINT ( 'NONE',  ( 0.1695299461620755899, 0.000000000000000000, 0.3999999999999969691 ) ) ;
#131 = FACE_OUTER_BOUND ( 'NONE', #301, .T. ) ;
#132 = DIRECTION ( 'NONE',  ( 1.000000000000000000, 0.000000000000000000, -3.469446951953622866E-15 ) ) ;
#133 = TOROIDAL_SURFACE ( 'NONE', #367, 1.125000000000000000, 1.000000000000000000 ) ;
#134 = EDGE_CURVE ( 'NONE', #344, #344, #335, .T. ) ;
#135 = APPROVAL_STATUS ( 'not_yet_approved' ) ;
#136 = FACE_OUTER_BOUND ( 'NONE', #51, .T. ) ;
#137 = PERSON_AND_ORGANIZATION ( #247, #144 ) ;
#138 = FACE_OUTER_BOUND ( 'NONE', #208, .T. ) ;
#139 = EDGE_LOOP ( 'NONE', ( #173 ) ) ;
#140 = CALENDAR_DATE ( 2023, 27, 9 ) ;
#141 = DIRECTION ( 'NONE',  ( -3.491481338843133355E-15, 0.000000000000000000, -1.000000000000000000 ) ) ;
#142 = APPROVAL ( #50, 'UNSPECIFIED' ) ;
#143 = DIRECTION ( 'NONE',  ( -3.491481338843133355E-15, 0.000000000000000000, -1.000000000000000000 ) ) ;
#144 = ORGANIZATION ( 'UNSPECIFIED', 'UNSPECIFIED', '' ) ;
#145 = CARTESIAN_POINT ( 'NONE',  ( 0.000000000000000000, 0.000000000000000000, 0.000000000000000000 ) ) ;
#146 = CARTESIAN_POINT ( 'NONE',  ( 1.326762908760390423E-13, 0.000000000000000000, 38.00000000000000000 ) ) ;
#147 = EDGE_CURVE ( 'NONE', #312, #312, #251, .T. ) ;
#148 = FACE_BOUND ( 'NONE', #205, .T. ) ;
#149 =( NAMED_UNIT ( * ) SI_UNIT ( $, .STERADIAN. ) SOLID_ANGLE_UNIT ( ) );
#150 = CYLINDRICAL_SURFACE ( 'NONE', #10, 0.1695299461620742298 ) ;
#151 = CARTESIAN_POINT ( 'NONE',  ( 0.1695299461620750070, 0.000000000000000000, 0.2250000000000023925 ) ) ;
#152 = DIRECTION ( 'NONE',  ( 3.491481338843133355E-15, -0.000000000000000000, 1.000000000000000000 ) ) ;
#153 = AXIS2_PLACEMENT_3D ( 'NONE', #9, #183, #348 ) ;
#154 = AXIS2_PLACEMENT_3D ( 'NONE', #17, #44, #132 ) ;
#155 = VERTEX_POINT ( 'NONE', #126 ) ;
#156 = CIRCLE ( 'NONE', #14, 1.499999999999996447 ) ;
#157 = CARTESIAN_POINT ( 'NONE',  ( 0.1250000000000014155, 0.000000000000000000, 0.3999999999999971356 ) ) ;
#158 = DIRECTION ( 'NONE',  ( 3.491481338843133355E-15, -0.000000000000000000, 1.000000000000000000 ) ) ;
#159 = ADVANCED_FACE ( 'NONE', ( #22, #136 ), #133, .F. ) ;
#160 = DIRECTION ( 'NONE',  ( 1.000000000000000000, 0.000000000000000000, -3.517438708421114279E-15 ) ) ;
#161 = LOCAL_TIME ( 10, 29, 46.00000000000000000, #392 ) ;
#162 = CARTESIAN_POINT ( 'NONE',  ( 7.855833012397154573E-16, 0.000000000000000000, 0.2250000000000029754 ) ) ;
#163 = COORDINATED_UNIVERSAL_TIME_OFFSET ( 1, 0, .AHEAD. ) ;
#164 = ADVANCED_BREP_SHAPE_REPRESENTATION ( '960446', ( #127, #317 ), #309 ) ;
#165 = SHAPE_DEFINITION_REPRESENTATION ( #16, #164 ) ;
#166 = CC_DESIGN_PERSON_AND_ORGANIZATION_ASSIGNMENT ( #321, #198, ( #393 ) ) ;
#167 = PERSON_AND_ORGANIZATION_ROLE ( 'design_owner' ) ;
#168 = DIRECTION ( 'NONE',  ( -3.491481338843133355E-15, 0.000000000000000000, -1.000000000000000000 ) ) ;
#169 = AXIS2_PLACEMENT_3D ( 'NONE', #100, #45, #289 ) ;
#170 = ORIENTED_EDGE ( 'NONE', *, *, #68, .F. ) ;
#171 = DATE_TIME_ROLE ( 'creation_date' ) ;
#172 = DIRECTION ( 'NONE',  ( 3.491481338843133355E-15, -0.000000000000000000, 1.000000000000000000 ) ) ;
#173 = ORIENTED_EDGE ( 'NONE', *, *, #346, .T. ) ;
#174 = CALENDAR_DATE ( 2023, 27, 9 ) ;
#175 = ADVANCED_FACE ( 'NONE', ( #385 ), #191, .F. ) ;
#176 = ORIENTED_EDGE ( 'NONE', *, *, #250, .T. ) ;
#177 = EDGE_LOOP ( 'NONE', ( #272 ) ) ;
#178 = ORIENTED_EDGE ( 'NONE', *, *, #214, .T. ) ;
#179 = DIRECTION ( 'NONE',  ( -1.000000000000000000, 0.000000000000000000, 3.423796334164751322E-15 ) ) ;
#180 = EDGE_CURVE ( 'NONE', #42, #42, #19, .T. ) ;
#181 = VERTEX_POINT ( 'NONE', #186 ) ;
#182 = CONICAL_SURFACE ( 'NONE', #302, 0.1590741737109296894, 0.2617993877991430796 ) ;
#183 = DIRECTION ( 'NONE',  ( 3.491481338843133355E-15, -0.000000000000000000, 1.000000000000000000 ) ) ;
#184 = DIRECTION ( 'NONE',  ( 1.000000000000000000, 0.000000000000000000, -3.517438708421115068E-15 ) ) ;
#185 = APPROVAL ( #135, 'UNSPECIFIED' ) ;
#186 = CARTESIAN_POINT ( 'NONE',  ( 0.2850000000000010858, 0.000000000000000000, 0.3083333333333330706 ) ) ;
#187 = AXIS2_PLACEMENT_3D ( 'NONE', #220, #74, #70 ) ;
#188 = DIRECTION ( 'NONE',  ( 3.491481338843133355E-15, -0.000000000000000000, 1.000000000000000000 ) ) ;
#189 = CC_DESIGN_DATE_AND_TIME_ASSIGNMENT ( #290, #229, ( #213 ) ) ;
#190 = VERTEX_POINT ( 'NONE', #347 ) ;
#191 = PLANE ( 'NONE',  #187 ) ;
#192 = EDGE_LOOP ( 'NONE', ( #114 ) ) ;
#193 = APPROVAL_DATE_TIME ( #103, #185 ) ;
#194 = LOCAL_TIME ( 10, 29, 46.00000000000000000, #47 ) ;
#195 = DIRECTION ( 'NONE',  ( -3.491481338843133355E-15, 0.000000000000000000, -1.000000000000000000 ) ) ;
#196 = APPROVAL_DATE_TIME ( #201, #94 ) ;
#197 = DIRECTION ( 'NONE',  ( 1.000000000000000000, 0.000000000000000000, -3.517438708421114279E-15 ) ) ;
#198 = PERSON_AND_ORGANIZATION_ROLE ( 'design_supplier' ) ;
#199 = DIRECTION ( 'NONE',  ( 1.000000000000000000, 0.000000000000000000, -3.471349061028150487E-15 ) ) ;
#200 = EDGE_LOOP ( 'NONE', ( #303 ) ) ;
#201 = DATE_AND_TIME ( #174, #384 ) ;
#202 = CYLINDRICAL_SURFACE ( 'NONE', #124, 0.1695299461620742021 ) ;
#203 = AXIS2_PLACEMENT_3D ( 'NONE', #305, #141, #113 ) ;
#204 = ORIENTED_EDGE ( 'NONE', *, *, #377, .T. ) ;
#205 = EDGE_LOOP ( 'NONE', ( #238 ) ) ;
#206 = ORIENTED_EDGE ( 'NONE', *, *, #227, .T. ) ;
#207 = FACE_OUTER_BOUND ( 'NONE', #60, .T. ) ;
#208 = EDGE_LOOP ( 'NONE', ( #55 ) ) ;
#209 = EDGE_CURVE ( 'NONE', #242, #242, #294, .T. ) ;
#210 = CARTESIAN_POINT ( 'NONE',  ( 1.076540079476635283E-15, 0.000000000000000000, 0.3083333333333340698 ) ) ;
#211 = FACE_OUTER_BOUND ( 'NONE', #315, .T. ) ;
#212 = CARTESIAN_POINT ( 'NONE',  ( 0.2850000000000003086, 0.000000000000000000, 0.09166666666666252461 ) ) ;
#213 = SECURITY_CLASSIFICATION ( '', '', #111 ) ;
#214 = EDGE_CURVE ( 'NONE', #248, #248, #116, .T. ) ;
#215 = CARTESIAN_POINT ( 'NONE',  ( 0.1590741737109370724, 0.000000000000000000, 2.108819045102516387 ) ) ;
#216 = DIRECTION ( 'NONE',  ( 3.491481338843133355E-15, -0.000000000000000000, 1.000000000000000000 ) ) ;
#217 = DIRECTION ( 'NONE',  ( 3.491481338843133355E-15, -0.000000000000000000, 1.000000000000000000 ) ) ;
#218 = ADVANCED_FACE ( 'NONE', ( #354, #15 ), #325, .T. ) ;
#219 = VERTEX_POINT ( 'NONE', #249 ) ;
#220 = CARTESIAN_POINT ( 'NONE',  ( 2.867688805299982299E-34, 0.000000000000000000, 8.213387175800177181E-20 ) ) ;
#221 = DESIGN_CONTEXT ( 'detailed design', #6, 'design' ) ;
#222 = CARTESIAN_POINT ( 'NONE',  ( 1.396592535537244862E-15, 0.000000000000000000, 0.3999999999999975797 ) ) ;
#223 = VERTEX_POINT ( 'NONE', #120 ) ;
#224 = DIRECTION ( 'NONE',  ( 1.000000000000000000, 0.000000000000000000, -3.491481338843132961E-15 ) ) ;
#225 = DIRECTION ( 'NONE',  ( -1.000000000000000000, 0.000000000000000000, 3.471349061028150487E-15 ) ) ;
#226 = PERSON_AND_ORGANIZATION_ROLE ( 'creator' ) ;
#227 = EDGE_CURVE ( 'NONE', #342, #342, #327, .T. ) ;
#228 = ORIENTED_EDGE ( 'NONE', *, *, #38, .T. ) ;
#229 = DATE_TIME_ROLE ( 'classification_date' ) ;
#230 = AXIS2_PLACEMENT_3D ( 'NONE', #373, #216, #311 ) ;
#231 = AXIS2_PLACEMENT_3D ( 'NONE', #95, #273, #11 ) ;
#232 = EDGE_LOOP ( 'NONE', ( #256 ) ) ;
#233 = PERSON_AND_ORGANIZATION ( #247, #144 ) ;
#234 = DIRECTION ( 'NONE',  ( 3.491481338843133355E-15, -0.000000000000000000, 1.000000000000000000 ) ) ;
#235 = EDGE_LOOP ( 'NONE', ( #329 ) ) ;
#236 = FACE_BOUND ( 'NONE', #200, .T. ) ;
#237 = ORIENTED_EDGE ( 'NONE', *, *, #134, .F. ) ;
#238 = ORIENTED_EDGE ( 'NONE', *, *, #288, .T. ) ;
#239 = AXIS2_PLACEMENT_3D ( 'NONE', #162, #13, #160 ) ;
#240 =( LENGTH_UNIT ( ) NAMED_UNIT ( * ) SI_UNIT ( .MILLI., .METRE. ) );
#241 = EDGE_LOOP ( 'NONE', ( #129 ) ) ;
#242 = VERTEX_POINT ( 'NONE', #212 ) ;
#243 = DIRECTION ( 'NONE',  ( 1.000000000000000000, 0.000000000000000000, -3.517438708421114279E-15 ) ) ;
#244 = CYLINDRICAL_SURFACE ( 'NONE', #230, 0.1249999999999998335 ) ;
#245 = CARTESIAN_POINT ( 'NONE',  ( 1.200000000000126299, 0.000000000000000000, 37.99999999999999289 ) ) ;
#246 = DIRECTION ( 'NONE',  ( 1.000000000000000000, 0.000000000000000000, 0.000000000000000000 ) ) ;
#247 = PERSON ( 'UNSPECIFIED', 'UNSPECIFIED', 'UNSPECIFIED', ('UNSPECIFIED'), ('UNSPECIFIED'), ('UNSPECIFIED') ) ;
#248 = VERTEX_POINT ( 'NONE', #130 ) ;
#249 = CARTESIAN_POINT ( 'NONE',  ( 0.2850000000000010303, 0.000000000000000000, 0.2916666666666682395 ) ) ;
#250 = EDGE_CURVE ( 'NONE', #128, #128, #20, .T. ) ;
#251 = CIRCLE ( 'NONE', #382, 0.1250000000000000000 ) ;
#252 = CARTESIAN_POINT ( 'NONE',  ( 0.000000000000000000, 0.000000000000000000, 0.000000000000000000 ) ) ;
#253 = ORIENTED_EDGE ( 'NONE', *, *, #99, .F. ) ;
#254 = EDGE_CURVE ( 'NONE', #190, #190, #378, .T. ) ;
#255 = PERSON_AND_ORGANIZATION ( #247, #144 ) ;
#256 = ORIENTED_EDGE ( 'NONE', *, *, #254, .T. ) ;
#257 = CLOSED_SHELL ( 'NONE', ( #175, #389, #324, #218, #32, #58, #350, #23, #284, #106, #63, #159, #332, #4, #361, #307 ) ) ;
#258 = APPROVAL_ROLE ( '' ) ;
#259 = CC_DESIGN_PERSON_AND_ORGANIZATION_ASSIGNMENT ( #233, #226, ( #393 ) ) ;
#260 = DIRECTION ( 'NONE',  ( 1.000000000000000000, 0.000000000000000000, -3.469446951953614189E-15 ) ) ;
#261 = ORIENTED_EDGE ( 'NONE', *, *, #87, .T. ) ;
#262 = CALENDAR_DATE ( 2023, 27, 9 ) ;
#263 = UNCERTAINTY_MEASURE_WITH_UNIT (LENGTH_MEASURE( 1.000000000000000082E-05 ), #240, 'distance_accuracy_value', 'NONE');
#264 = FACE_OUTER_BOUND ( 'NONE', #296, .T. ) ;
#265 = EDGE_LOOP ( 'NONE', ( #253 ) ) ;
#266 = AXIS2_PLACEMENT_3D ( 'NONE', #92, #217, #184 ) ;
#267 = CC_DESIGN_APPROVAL ( #94, ( #213 ) ) ;
#268 = ORIENTED_EDGE ( 'NONE', *, *, #180, .T. ) ;
#269 = ORIENTED_EDGE ( 'NONE', *, *, #250, .F. ) ;
#270 = CC_DESIGN_PERSON_AND_ORGANIZATION_ASSIGNMENT ( #137, #105, ( #213 ) ) ;
#271 = DIRECTION ( 'NONE',  ( 1.000000000000000000, 0.000000000000000000, -2.726280821563710505E-15 ) ) ;
#272 = ORIENTED_EDGE ( 'NONE', *, *, #87, .F. ) ;
#273 = DIRECTION ( 'NONE',  ( 3.491481338843133355E-15, -0.000000000000000000, 1.000000000000000000 ) ) ;
#274 = CARTESIAN_POINT ( 'NONE',  ( 0.2850000000000003642, 0.000000000000000000, 0.1083333333333342946 ) ) ;
#275 = ORIENTED_EDGE ( 'NONE', *, *, #68, .T. ) ;
#276 = CC_DESIGN_DATE_AND_TIME_ASSIGNMENT ( #72, #171, ( #12 ) ) ;
#277 = CARTESIAN_POINT ( 'NONE',  ( 1.316288464743861212E-13, 0.000000000000000000, 37.69999999999999574 ) ) ;
#278 = DIRECTION ( 'NONE',  ( 3.491481338843133355E-15, -0.000000000000000000, 1.000000000000000000 ) ) ;
#279 = FACE_OUTER_BOUND ( 'NONE', #177, .T. ) ;
#280 = CC_DESIGN_APPROVAL ( #142, ( #12 ) ) ;
#281 = DIRECTION ( 'NONE',  ( 1.000000000000000000, 0.000000000000000000, -3.423796334164751322E-15 ) ) ;
#282 = AXIS2_PLACEMENT_3D ( 'NONE', #375, #66, #322 ) ;
#283 = CONICAL_SURFACE ( 'NONE', #101, 1.499999999999996447, 0.7853981633974501664 ) ;
#284 = ADVANCED_FACE ( 'NONE', ( #138, #338 ), #202, .T. ) ;
#285 = DIRECTION ( 'NONE',  ( 1.000000000000000000, 0.000000000000000000, -5.782411586589388010E-15 ) ) ;
#286 = CARTESIAN_POINT ( 'NONE',  ( 3.200524560606095299E-16, 0.000000000000000000, 0.09166666666666350993 ) ) ;
#287 = CONICAL_SURFACE ( 'NONE', #57, 0.2849999999999999756, 1.047197551196602738 ) ;
#288 = EDGE_CURVE ( 'NONE', #223, #223, #90, .T. ) ;
#289 = DIRECTION ( 'NONE',  ( 1.000000000000000000, 0.000000000000000000, -3.517438708421115463E-15 ) ) ;
#290 = DATE_AND_TIME ( #140, #194 ) ;
#291 = COORDINATED_UNIVERSAL_TIME_OFFSET ( 1, 0, .AHEAD. ) ;
#292 = DIRECTION ( 'NONE',  ( 1.000000000000000000, 0.000000000000000000, -3.469446951953614189E-15 ) ) ;
#293 = PERSON_AND_ORGANIZATION ( #247, #144 ) ;
#294 = CIRCLE ( 'NONE', #49, 0.2849999999999999756 ) ;
#295 = PLANE ( 'NONE',  #102 ) ;
#296 = EDGE_LOOP ( 'NONE', ( #269 ) ) ;
#297 = PERSON_AND_ORGANIZATION_ROLE ( 'creator' ) ;
#298 = EDGE_LOOP ( 'NONE', ( #228 ) ) ;
#299 = PERSON_AND_ORGANIZATION ( #247, #144 ) ;
#300 = CYLINDRICAL_SURFACE ( 'NONE', #36, 0.2849999999999999756 ) ;
#301 = EDGE_LOOP ( 'NONE', ( #178 ) ) ;
#302 = AXIS2_PLACEMENT_3D ( 'NONE', #365, #82, #271 ) ;
#303 = ORIENTED_EDGE ( 'NONE', *, *, #99, .T. ) ;
#304 = ORIENTED_EDGE ( 'NONE', *, *, #209, .T. ) ;
#305 = CARTESIAN_POINT ( 'NONE',  ( 1.326762908760390423E-13, 1.199999999999993516, 38.00000000000000000 ) ) ;
#306 = FACE_OUTER_BOUND ( 'NONE', #192, .T. ) ;
#307 = ADVANCED_FACE ( 'NONE', ( #388 ), #85, .F. ) ;
#308 = VERTEX_POINT ( 'NONE', #215 ) ;
#309 =( GEOMETRIC_REPRESENTATION_CONTEXT ( 3 ) GLOBAL_UNCERTAINTY_ASSIGNED_CONTEXT ( ( #263 ) ) GLOBAL_UNIT_ASSIGNED_CONTEXT ( ( #240, #33, #149 ) ) REPRESENTATION_CONTEXT ( 'NONE', 'WORKASPACE' ) );
#310 = FACE_OUTER_BOUND ( 'NONE', #241, .T. ) ;
#311 = DIRECTION ( 'NONE',  ( 1.000000000000000000, 0.000000000000000000, 0.000000000000000000 ) ) ;
#312 = VERTEX_POINT ( 'NONE', #157 ) ;
#313 = AXIS2_PLACEMENT_3D ( 'NONE', #349, #158, #243 ) ;
#314 = FACE_BOUND ( 'NONE', #364, .T. ) ;
#315 = EDGE_LOOP ( 'NONE', ( #204 ) ) ;
#316 = CIRCLE ( 'NONE', #282, 0.1590741737109296894 ) ;
#317 = AXIS2_PLACEMENT_3D ( 'NONE', #252, #379, #25 ) ;
#318 = MECHANICAL_CONTEXT ( 'NONE', #383, 'mechanical' ) ;
#319 = CARTESIAN_POINT ( 'NONE',  ( 1.309305502066176192E-15, 0.000000000000000000, 0.3750000000000003331 ) ) ;
#320 = DIRECTION ( 'NONE',  ( 3.491481338843133355E-15, -0.000000000000000000, 1.000000000000000000 ) ) ;
#321 = PERSON_AND_ORGANIZATION ( #247, #144 ) ;
#322 = DIRECTION ( 'NONE',  ( 1.000000000000000000, 0.000000000000000000, -2.726280821563710505E-15 ) ) ;
#323 = EDGE_LOOP ( 'NONE', ( #261 ) ) ;
#324 = ADVANCED_FACE ( 'NONE', ( #264, #207 ), #300, .T. ) ;
#325 = CONICAL_SURFACE ( 'NONE', #8, 0.2849999999999999756, 1.047197551196602738 ) ;
#326 = APPLICATION_PROTOCOL_DEFINITION ( 'international standard', 'config_control_design', 1994, #6 ) ;
#327 = CIRCLE ( 'NONE', #56, 0.1695299461620742298 ) ;
#328 = DIRECTION ( 'NONE',  ( 3.491481338843133355E-15, -0.000000000000000000, 1.000000000000000000 ) ) ;
#329 = ORIENTED_EDGE ( 'NONE', *, *, #227, .F. ) ;
#330 = CALENDAR_DATE ( 2023, 27, 9 ) ;
#331 = ORIENTED_EDGE ( 'NONE', *, *, #254, .F. ) ;
#332 = ADVANCED_FACE ( 'NONE', ( #54, #236 ), #182, .T. ) ;
#333 = EDGE_LOOP ( 'NONE', ( #112 ) ) ;
#334 = CONICAL_SURFACE ( 'NONE', #231, 0.1262286759728522556, 1.047197551196614507 ) ;
#335 = CIRCLE ( 'NONE', #154, 0.1249999999999996808 ) ;
#336 = APPROVAL_PERSON_ORGANIZATION ( #299, #142, #258 ) ;
#337 = ORIENTED_EDGE ( 'NONE', *, *, #134, .T. ) ;
#338 = FACE_OUTER_BOUND ( 'NONE', #81, .T. ) ;
#339 = FACE_OUTER_BOUND ( 'NONE', #232, .T. ) ;
#340 = CC_DESIGN_PERSON_AND_ORGANIZATION_ASSIGNMENT ( #386, #297, ( #12 ) ) ;
#341 = VERTEX_POINT ( 'NONE', #88 ) ;
#342 = VERTEX_POINT ( 'NONE', #380 ) ;
#343 = CARTESIAN_POINT ( 'NONE',  ( 1.326762908760390423E-13, 0.000000000000000000, 38.00000000000000000 ) ) ;
#344 = VERTEX_POINT ( 'NONE', #37 ) ;
#345 = AXIS2_PLACEMENT_3D ( 'NONE', #343, #62, #285 ) ;
#346 = EDGE_CURVE ( 'NONE', #155, #155, #156, .T. ) ;
#347 = CARTESIAN_POINT ( 'NONE',  ( 1.500000000000024869, 0.000000000000000000, 7.113222357994728462 ) ) ;
#348 = DIRECTION ( 'NONE',  ( 1.000000000000000000, 0.000000000000000000, 0.000000000000000000 ) ) ;
#349 = CARTESIAN_POINT ( 'NONE',  ( 7.855833012397154573E-16, 0.000000000000000000, 0.2250000000000029754 ) ) ;
#350 = ADVANCED_FACE ( 'NONE', ( #279, #211 ), #376, .T. ) ;
#351 = DIRECTION ( 'NONE',  ( 3.491481338843133355E-15, -0.000000000000000000, 1.000000000000000000 ) ) ;
#352 = CARTESIAN_POINT ( 'NONE',  ( 3.782438117080129010E-16, 0.000000000000000000, 0.1083333333333352799 ) ) ;
#353 = AXIS2_PLACEMENT_3D ( 'NONE', #91, #188, #372 ) ;
#354 = FACE_BOUND ( 'NONE', #83, .T. ) ;
#355 = CARTESIAN_POINT ( 'NONE',  ( 3.782438117080129010E-16, 0.000000000000000000, 0.1083333333333352799 ) ) ;
#356 = APPROVAL_ROLE ( '' ) ;
#357 = CARTESIAN_POINT ( 'NONE',  ( 1.326762908760390423E-13, 0.000000000000000000, 38.00000000000000000 ) ) ;
#358 = PERSON_AND_ORGANIZATION ( #247, #144 ) ;
#359 = AXIS2_PLACEMENT_3D ( 'NONE', #145, #172, #1 ) ;
#360 = EDGE_LOOP ( 'NONE', ( #31 ) ) ;
#361 = ADVANCED_FACE ( 'NONE', ( #39, #61 ), #283, .T. ) ;
#362 = DATE_AND_TIME ( #262, #110 ) ;
#363 = DIRECTION ( 'NONE',  ( 1.000000000000000000, 0.000000000000000000, 0.000000000000000000 ) ) ;
#364 = EDGE_LOOP ( 'NONE', ( #268 ) ) ;
#365 = CARTESIAN_POINT ( 'NONE',  ( 7.362902342972433575E-15, 0.000000000000000000, 2.108819045102516831 ) ) ;
#366 = CYLINDRICAL_SURFACE ( 'NONE', #78, 1.499999999999998224 ) ;
#367 = AXIS2_PLACEMENT_3D ( 'NONE', #381, #98, #224 ) ;
#368 = AXIS2_PLACEMENT_3D ( 'NONE', #30, #26, #260 ) ;
#369 = FACE_OUTER_BOUND ( 'NONE', #29, .T. ) ;
#370 = EDGE_LOOP ( 'NONE', ( #331 ) ) ;
#371 = DIRECTION ( 'NONE',  ( 1.000000000000000000, 0.000000000000000000, -4.625929269271496366E-15 ) ) ;
#372 = DIRECTION ( 'NONE',  ( 1.000000000000000000, 0.000000000000000000, -3.423796334164751322E-15 ) ) ;
#373 = CARTESIAN_POINT ( 'NONE',  ( 1.326762908760390423E-13, 0.000000000000000000, 38.00000000000000000 ) ) ;
#374 = APPROVAL_PERSON_ORGANIZATION ( #293, #185, #387 ) ;
#375 = CARTESIAN_POINT ( 'NONE',  ( 7.362902342972433575E-15, 0.000000000000000000, 2.108819045102516831 ) ) ;
#376 = CYLINDRICAL_SURFACE ( 'NONE', #153, 0.2849999999999999756 ) ;
#377 = EDGE_CURVE ( 'NONE', #219, #219, #43, .T. ) ;
#378 = CIRCLE ( 'NONE', #368, 1.500000000000000000 ) ;
#379 = DIRECTION ( 'NONE',  ( 0.000000000000000000, 0.000000000000000000, 1.000000000000000000 ) ) ;
#380 = CARTESIAN_POINT ( 'NONE',  ( 0.1695299461620755344, 0.000000000000000000, 0.3749999999999997224 ) ) ;
#381 = CARTESIAN_POINT ( 'NONE',  ( 6.459240476859796707E-15, 0.000000000000000000, 1.850000000000000089 ) ) ;
#382 = AXIS2_PLACEMENT_3D ( 'NONE', #222, #97, #292 ) ;
#383 = APPLICATION_CONTEXT ( 'configuration controlled 3d designs of mechanical parts and assemblies' ) ;
#384 = LOCAL_TIME ( 10, 29, 46.00000000000000000, #77 ) ;
#385 = FACE_OUTER_BOUND ( 'NONE', #333, .T. ) ;
#386 = PERSON_AND_ORGANIZATION ( #247, #144 ) ;
#387 = APPROVAL_ROLE ( '' ) ;
#388 = FACE_OUTER_BOUND ( 'NONE', #76, .T. ) ;
#389 = ADVANCED_FACE ( 'NONE', ( #125, #148 ), #334, .T. ) ;
#390 = EDGE_LOOP ( 'NONE', ( #237 ) ) ;
#391 = PRODUCT ( '960446', '960446', '', ( #318 ) ) ;
#392 = COORDINATED_UNIVERSAL_TIME_OFFSET ( 1, 0, .AHEAD. ) ;
#393 = PRODUCT_DEFINITION_FORMATION_WITH_SPECIFIED_SOURCE ( 'ANY', '', #391, .NOT_KNOWN. ) ;
#394 = CARTESIAN_POINT ( 'NONE',  ( 1.326762908760390423E-13, 0.000000000000000000, 38.00000000000000000 ) ) ;
#395 = EDGE_LOOP ( 'NONE', ( #176 ) ) ;
ENDSEC;
END-ISO-10303-21;
