ISO-10303-21;
HEADER;
FILE_DESCRIPTION (( 'STEP AP203' ),
    '1' );
FILE_NAME ('960345.step',
    '2021-11-05T15:02:24',
    ( '' ),
    ( '' ),
    'SwSTEP 2.0',
    'SolidWorks 2019',
    '' );
FILE_SCHEMA (( 'CONFIG_CONTROL_DESIGN' ));
ENDSEC;

DATA;
#1 = CC_DESIGN_PERSON_AND_ORGANIZATION_ASSIGNMENT ( #218, #28, ( #136 ) ) ;
#2 = ORIENTED_EDGE ( 'NONE', *, *, #157, .T. ) ;
#3 = DIRECTION ( 'NONE',  ( -4.275831445896958607E-31, -1.000000000000000000, -1.224646799147353207E-16 ) ) ;
#4 = DIRECTION ( 'NONE',  ( 3.491481338843133355E-15, -0.0000000000000000000, 1.000000000000000000 ) ) ;
#5 = EDGE_CURVE ( 'NONE', #217, #217, #215, .T. ) ;
#6 = DIRECTION ( 'NONE',  ( 1.000000000000000000, 0.0000000000000000000, -3.491130995403324278E-15 ) ) ;
#7 = VERTEX_POINT ( 'NONE', #58 ) ;
#8 = ORIENTED_EDGE ( 'NONE', *, *, #49, .F. ) ;
#9 = CARTESIAN_POINT ( 'NONE',  ( -1.282747271474972817E-30, 4.499271763678771606E-32, -3.673934204385574736E-16 ) ) ;
#10 = COORDINATED_UNIVERSAL_TIME_OFFSET ( 1, 0, .AHEAD. ) ;
#11 = SECURITY_CLASSIFICATION_LEVEL ( 'unclassified' ) ;
#12 = PERSON_AND_ORGANIZATION ( #47, #123 ) ;
#13 = EDGE_CURVE ( 'NONE', #7, #7, #121, .T. ) ;
#14 = AXIS2_PLACEMENT_3D ( 'NONE', #127, #212, #22 ) ;
#15 = CC_DESIGN_DATE_AND_TIME_ASSIGNMENT ( #29, #119, ( #196 ) ) ;
#16 = CIRCLE ( 'NONE', #144, 1.999999999999997335 ) ;
#17 =( GEOMETRIC_REPRESENTATION_CONTEXT ( 3 ) GLOBAL_UNCERTAINTY_ASSIGNED_CONTEXT ( ( #48 ) ) GLOBAL_UNIT_ASSIGNED_CONTEXT ( ( #113, #183, #197 ) ) REPRESENTATION_CONTEXT ( 'NONE', 'WORKASPACE' ) );
#18 = DIRECTION ( 'NONE',  ( -3.491481338843133355E-15, 1.224646799147353207E-16, -1.000000000000000000 ) ) ;
#19 = CARTESIAN_POINT ( 'NONE',  ( 4.888073874380386697E-14, -1.714505518806294638E-15, 14.00000000000000000 ) ) ;
#20 = CC_DESIGN_DATE_AND_TIME_ASSIGNMENT ( #61, #59, ( #50 ) ) ;
#21 = ORIENTED_EDGE ( 'NONE', *, *, #157, .F. ) ;
#22 = DIRECTION ( 'NONE',  ( 4.275831445896958607E-31, 1.000000000000000000, 1.224646799147352961E-16 ) ) ;
#23 = AXIS2_PLACEMENT_3D ( 'NONE', #84, #126, #213 ) ;
#24 = LOCAL_TIME ( 16, 2, 24.00000000000000000, #201 ) ;
#25 = ORIENTED_EDGE ( 'NONE', *, *, #49, .T. ) ;
#26 = PERSON_AND_ORGANIZATION ( #47, #123 ) ;
#27 = DIRECTION ( 'NONE',  ( 3.491481338843133355E-15, -1.224646799147353207E-16, 1.000000000000000000 ) ) ;
#28 = PERSON_AND_ORGANIZATION_ROLE ( 'creator' ) ;
#29 = DATE_AND_TIME ( #133, #189 ) ;
#30 = CC_DESIGN_SECURITY_CLASSIFICATION ( #50, ( #136 ) ) ;
#31 = EDGE_CURVE ( 'NONE', #42, #42, #16, .T. ) ;
#32 = ADVANCED_FACE ( 'NONE', ( #177 ), #192, .F. ) ;
#33 = CYLINDRICAL_SURFACE ( 'NONE', #94, 2.499999999999995115 ) ;
#34 = DIRECTION ( 'NONE',  ( 3.491481338843133355E-15, -1.224646799147353207E-16, 1.000000000000000000 ) ) ;
#35 = LOCAL_TIME ( 16, 2, 24.00000000000000000, #164 ) ;
#36 = CARTESIAN_POINT ( 'NONE',  ( 0.0000000000000000000, 0.0000000000000000000, 0.0000000000000000000 ) ) ;
#37 = EDGE_LOOP ( 'NONE', ( #2 ) ) ;
#38 = DIRECTION ( 'NONE',  ( 0.0000000000000000000, 1.000000000000000000, 0.0000000000000000000 ) ) ;
#39 = CARTESIAN_POINT ( 'NONE',  ( 2.350000000000001865, 0.0000000000000000000, -8.204981146281369696E-15 ) ) ;
#40 = CARTESIAN_POINT ( 'NONE',  ( 2.500000000000000444, 0.0000000000000000000, 0.1499999999999912792 ) ) ;
#41 = CALENDAR_DATE ( 2021, 5, 11 ) ;
#42 = VERTEX_POINT ( 'NONE', #73 ) ;
#43 = APPROVAL_STATUS ( 'not_yet_approved' ) ;
#44 = PERSON_AND_ORGANIZATION_ROLE ( 'creator' ) ;
#45 = AXIS2_PLACEMENT_3D ( 'NONE', #208, #34, #3 ) ;
#46 = APPROVAL_STATUS ( 'not_yet_approved' ) ;
#47 = PERSON ( 'UNSPECIFIED', 'UNSPECIFIED', 'UNSPECIFIED', ('UNSPECIFIED'), ('UNSPECIFIED'), ('UNSPECIFIED') ) ;
#48 = UNCERTAINTY_MEASURE_WITH_UNIT (LENGTH_MEASURE( 1.000000000000000082E-05 ), #113, 'distance_accuracy_value', 'NONE');
#49 = EDGE_CURVE ( 'NONE', #129, #129, #102, .T. ) ;
#50 = SECURITY_CLASSIFICATION ( '', '', #11 ) ;
#51 = CARTESIAN_POINT ( 'NONE',  ( 1.728283262727351074E-13, -6.062001655779398511E-15, 49.50000000000000000 ) ) ;
#52 = CARTESIAN_POINT ( 'NONE',  ( 1.745740669421566678E-13, 1.499759782661846660E-32, 50.00000000000000000 ) ) ;
#53 = DIRECTION ( 'NONE',  ( 3.491481338843133355E-15, -0.0000000000000000000, 1.000000000000000000 ) ) ;
#54 = PLANE ( 'NONE',  #210 ) ;
#55 = EDGE_LOOP ( 'NONE', ( #64 ) ) ;
#56 = CYLINDRICAL_SURFACE ( 'NONE', #14, 2.499999999999992450 ) ;
#57 = CLOSED_SHELL ( 'NONE', ( #72, #190, #172, #32 ) ) ;
#58 = CARTESIAN_POINT ( 'NONE',  ( 1.728283262727351074E-13, 2.499999999999991562, 49.50000000000000000 ) ) ;
#59 = DATE_TIME_ROLE ( 'classification_date' ) ;
#60 = CALENDAR_DATE ( 2021, 5, 11 ) ;
#61 = DATE_AND_TIME ( #95, #198 ) ;
#62 = CC_DESIGN_PERSON_AND_ORGANIZATION_ASSIGNMENT ( #12, #187, ( #50 ) ) ;
#63 = PERSON_AND_ORGANIZATION ( #47, #123 ) ;
#64 = ORIENTED_EDGE ( 'NONE', *, *, #175, .T. ) ;
#65 = CC_DESIGN_APPROVAL ( #199, ( #136 ) ) ;
#66 = DIRECTION ( 'NONE',  ( 4.275831445896958607E-31, 1.000000000000000000, 1.224646799147353207E-16 ) ) ;
#67 = EDGE_LOOP ( 'NONE', ( #8 ) ) ;
#68 = FACE_OUTER_BOUND ( 'NONE', #37, .T. ) ;
#69 = AXIS2_PLACEMENT_3D ( 'NONE', #36, #4, #174 ) ;
#70 = DIRECTION ( 'NONE',  ( -4.275831445896958607E-31, -1.000000000000000000, -1.224646799147353207E-16 ) ) ;
#71 = FACE_OUTER_BOUND ( 'NONE', #171, .T. ) ;
#72 = ADVANCED_FACE ( 'NONE', ( #85 ), #54, .F. ) ;
#73 = CARTESIAN_POINT ( 'NONE',  ( 1.745740669421566678E-13, 1.999999999999991340, 50.00000000000000000 ) ) ;
#74 = DIRECTION ( 'NONE',  ( 4.275831445896958607E-31, 1.000000000000000000, 1.224646799147353207E-16 ) ) ;
#75 = DATE_AND_TIME ( #41, #182 ) ;
#76 = PERSON_AND_ORGANIZATION_ROLE ( 'design_owner' ) ;
#77 = EDGE_LOOP ( 'NONE', ( #203 ) ) ;
#78 = CIRCLE ( 'NONE', #111, 2.500000000000000000 ) ;
#79 = CC_DESIGN_APPROVAL ( #211, ( #50 ) ) ;
#80 = AXIS2_PLACEMENT_3D ( 'NONE', #52, #18, #66 ) ;
#81 = APPLICATION_CONTEXT ( 'configuration controlled 3d designs of mechanical parts and assemblies' ) ;
#82 = CARTESIAN_POINT ( 'NONE',  ( 4.888073874380386697E-14, 1.874699728327314346E-32, 14.00000000000000000 ) ) ;
#83 = CLOSED_SHELL ( 'NONE', ( #173, #115, #153, #216 ) ) ;
#84 = CARTESIAN_POINT ( 'NONE',  ( 4.888073874380386697E-14, -1.714505518806294638E-15, 14.00000000000000000 ) ) ;
#85 = FACE_OUTER_BOUND ( 'NONE', #167, .T. ) ;
#86 = ORIENTED_EDGE ( 'NONE', *, *, #31, .T. ) ;
#87 = PRODUCT_RELATED_PRODUCT_CATEGORY ( 'detail', '', ( #99 ) ) ;
#88 = APPROVAL_PERSON_ORGANIZATION ( #116, #199, #151 ) ;
#89 = FACE_OUTER_BOUND ( 'NONE', #159, .T. ) ;
#90 = CARTESIAN_POINT ( 'NONE',  ( 4.888073874380386697E-14, 2.499999999999991562, 14.00000000000000000 ) ) ;
#91 = APPROVAL_ROLE ( '' ) ;
#92 = VERTEX_POINT ( 'NONE', #90 ) ;
#93 = EDGE_LOOP ( 'NONE', ( #25 ) ) ;
#94 = AXIS2_PLACEMENT_3D ( 'NONE', #103, #166, #74 ) ;
#95 = CALENDAR_DATE ( 2021, 5, 11 ) ;
#96 = PRODUCT_DEFINITION_SHAPE ( 'NONE', 'NONE',  #196 ) ;
#97 = DIRECTION ( 'NONE',  ( 0.0000000000000000000, 0.0000000000000000000, 1.000000000000000000 ) ) ;
#98 = EDGE_LOOP ( 'NONE', ( #21 ) ) ;
#99 = PRODUCT ( '960345', '960345', '', ( #220 ) ) ;
#100 = CC_DESIGN_APPROVAL ( #154, ( #196 ) ) ;
#101 = CC_DESIGN_PERSON_AND_ORGANIZATION_ASSIGNMENT ( #26, #219, ( #136 ) ) ;
#102 = CIRCLE ( 'NONE', #69, 2.350000000000001865 ) ;
#103 = CARTESIAN_POINT ( 'NONE',  ( 0.0000000000000000000, 0.0000000000000000000, 0.0000000000000000000 ) ) ;
#104 = CARTESIAN_POINT ( 'NONE',  ( 5.237222008264700033E-16, 0.0000000000000000000, 0.1500000000000000222 ) ) ;
#105 = AXIS2_PLACEMENT_3D ( 'NONE', #9, #27, #112 ) ;
#106 = DIRECTION ( 'NONE',  ( 1.000000000000000000, 0.0000000000000000000, -3.491130995403324278E-15 ) ) ;
#107 = APPLICATION_CONTEXT ( 'configuration controlled 3d designs of mechanical parts and assemblies' ) ;
#108 = ORIENTED_EDGE ( 'NONE', *, *, #31, .F. ) ;
#109 = FACE_OUTER_BOUND ( 'NONE', #77, .T. ) ;
#110 = AXIS2_PLACEMENT_3D ( 'NONE', #19, #138, #38 ) ;
#111 = AXIS2_PLACEMENT_3D ( 'NONE', #160, #191, #6 ) ;
#112 = DIRECTION ( 'NONE',  ( -4.275831445896958607E-31, -1.000000000000000000, -1.224646799147353207E-16 ) ) ;
#113 =( LENGTH_UNIT ( ) NAMED_UNIT ( * ) SI_UNIT ( .MILLI., .METRE. ) );
#114 = DIRECTION ( 'NONE',  ( 1.000000000000000000, 0.0000000000000000000, 0.0000000000000000000 ) ) ;
#115 = ADVANCED_FACE ( 'NONE', ( #158 ), #139, .T. ) ;
#116 = PERSON_AND_ORGANIZATION ( #47, #123 ) ;
#117 = COORDINATED_UNIVERSAL_TIME_OFFSET ( 1, 0, .AHEAD. ) ;
#118 = COORDINATED_UNIVERSAL_TIME_OFFSET ( 1, 0, .AHEAD. ) ;
#119 = DATE_TIME_ROLE ( 'creation_date' ) ;
#120 = AXIS2_PLACEMENT_3D ( 'NONE', #51, #140, #207 ) ;
#121 = CIRCLE ( 'NONE', #120, 2.499999999999997335 ) ;
#122 = CIRCLE ( 'NONE', #23, 2.499999999999992895 ) ;
#123 = ORGANIZATION ( 'UNSPECIFIED', 'UNSPECIFIED', '' ) ;
#124 = CARTESIAN_POINT ( 'NONE',  ( 1.745740669421566678E-13, -6.123233995736766085E-15, 50.00000000000000000 ) ) ;
#125 = DIRECTION ( 'NONE',  ( -3.491481338843133355E-15, 1.224646799147353207E-16, -1.000000000000000000 ) ) ;
#126 = DIRECTION ( 'NONE',  ( -3.491481338843133355E-15, 1.224646799147353207E-16, -1.000000000000000000 ) ) ;
#127 = CARTESIAN_POINT ( 'NONE',  ( 0.0000000000000000000, 0.0000000000000000000, 0.0000000000000000000 ) ) ;
#128 = EDGE_LOOP ( 'NONE', ( #108 ) ) ;
#129 = VERTEX_POINT ( 'NONE', #39 ) ;
#130 = CARTESIAN_POINT ( 'NONE',  ( 4.888073874380386697E-14, 2.499999999999991562, 14.00000000000000000 ) ) ;
#131 = APPROVAL_DATE_TIME ( #75, #211 ) ;
#132 = PERSON_AND_ORGANIZATION ( #47, #123 ) ;
#133 = CALENDAR_DATE ( 2021, 5, 11 ) ;
#134 = EDGE_LOOP ( 'NONE', ( #162 ) ) ;
#135 = CC_DESIGN_PERSON_AND_ORGANIZATION_ASSIGNMENT ( #63, #44, ( #196 ) ) ;
#136 = PRODUCT_DEFINITION_FORMATION_WITH_SPECIFIED_SOURCE ( 'ANY', '', #99, .NOT_KNOWN. ) ;
#137 = ADVANCED_BREP_SHAPE_REPRESENTATION ( '960345', ( #148, #152, #165 ), #17 ) ;
#138 = DIRECTION ( 'NONE',  ( -3.491481338843133355E-15, 1.224646799147353207E-16, -1.000000000000000000 ) ) ;
#139 = PLANE ( 'NONE',  #45 ) ;
#140 = DIRECTION ( 'NONE',  ( -3.491481338843133355E-15, 1.224646799147353207E-16, -1.000000000000000000 ) ) ;
#141 = FACE_OUTER_BOUND ( 'NONE', #55, .T. ) ;
#142 = DIRECTION ( 'NONE',  ( 0.0000000000000000000, 1.000000000000000000, 0.0000000000000000000 ) ) ;
#143 = APPLICATION_PROTOCOL_DEFINITION ( 'international standard', 'config_control_design', 1994, #81 ) ;
#144 = AXIS2_PLACEMENT_3D ( 'NONE', #124, #209, #142 ) ;
#145 = FACE_OUTER_BOUND ( 'NONE', #67, .T. ) ;
#146 = DATE_AND_TIME ( #60, #24 ) ;
#147 = PERSON_AND_ORGANIZATION ( #47, #123 ) ;
#148 = MANIFOLD_SOLID_BREP ( 'Corps-Déplacer/Copier1[1]', #57 ) ;
#149 = AXIS2_PLACEMENT_3D ( 'NONE', #104, #53, #106 ) ;
#150 = APPROVAL_PERSON_ORGANIZATION ( #147, #154, #184 ) ;
#151 = APPROVAL_ROLE ( '' ) ;
#152 = MANIFOLD_SOLID_BREP ( 'Corps-Déplacer/Copier1[2]', #83 ) ;
#153 = ADVANCED_FACE ( 'NONE', ( #155, #109 ), #221, .T. ) ;
#154 = APPROVAL ( #46, 'UNSPECIFIED' ) ;
#155 = FACE_BOUND ( 'NONE', #93, .T. ) ;
#156 = FACE_BOUND ( 'NONE', #176, .T. ) ;
#157 = EDGE_CURVE ( 'NONE', #92, #92, #122, .T. ) ;
#158 = FACE_OUTER_BOUND ( 'NONE', #98, .T. ) ;
#159 = EDGE_LOOP ( 'NONE', ( #222 ) ) ;
#160 = CARTESIAN_POINT ( 'NONE',  ( 5.237222008264700033E-16, 0.0000000000000000000, 0.1500000000000000222 ) ) ;
#161 = PLANE ( 'NONE',  #105 ) ;
#162 = ORIENTED_EDGE ( 'NONE', *, *, #5, .F. ) ;
#163 = APPLICATION_PROTOCOL_DEFINITION ( 'international standard', 'config_control_design', 1994, #107 ) ;
#164 = COORDINATED_UNIVERSAL_TIME_OFFSET ( 1, 0, .AHEAD. ) ;
#165 = AXIS2_PLACEMENT_3D ( 'NONE', #170, #97, #114 ) ;
#166 = DIRECTION ( 'NONE',  ( -3.491481338843133355E-15, 1.224646799147353207E-16, -1.000000000000000000 ) ) ;
#167 = EDGE_LOOP ( 'NONE', ( #179 ) ) ;
#168 = PERSON_AND_ORGANIZATION ( #47, #123 ) ;
#169 = DATE_AND_TIME ( #200, #35 ) ;
#170 = CARTESIAN_POINT ( 'NONE',  ( 0.0000000000000000000, 0.0000000000000000000, 0.0000000000000000000 ) ) ;
#171 = EDGE_LOOP ( 'NONE', ( #181 ) ) ;
#172 = ADVANCED_FACE ( 'NONE', ( #89, #156 ), #206, .T. ) ;
#173 = ADVANCED_FACE ( 'NONE', ( #68, #141 ), #56, .T. ) ;
#174 = DIRECTION ( 'NONE',  ( 1.000000000000000000, 0.0000000000000000000, -3.491481338843133355E-15 ) ) ;
#175 = EDGE_CURVE ( 'NONE', #185, #185, #78, .T. ) ;
#176 = EDGE_LOOP ( 'NONE', ( #86 ) ) ;
#177 = FACE_OUTER_BOUND ( 'NONE', #128, .T. ) ;
#178 = DIRECTION ( 'NONE',  ( 3.491481338843133355E-15, -1.224646799147353207E-16, 1.000000000000000000 ) ) ;
#179 = ORIENTED_EDGE ( 'NONE', *, *, #5, .T. ) ;
#180 = AXIS2_PLACEMENT_3D ( 'NONE', #195, #125, #193 ) ;
#181 = ORIENTED_EDGE ( 'NONE', *, *, #13, .T. ) ;
#182 = LOCAL_TIME ( 16, 2, 24.00000000000000000, #117 ) ;
#183 =( NAMED_UNIT ( * ) PLANE_ANGLE_UNIT ( ) SI_UNIT ( $, .RADIAN. ) );
#184 = APPROVAL_ROLE ( '' ) ;
#185 = VERTEX_POINT ( 'NONE', #40 ) ;
#186 = APPROVAL_DATE_TIME ( #169, #154 ) ;
#187 = PERSON_AND_ORGANIZATION_ROLE ( 'classification_officer' ) ;
#188 = SHAPE_DEFINITION_REPRESENTATION ( #96, #137 ) ;
#189 = LOCAL_TIME ( 16, 2, 24.00000000000000000, #10 ) ;
#190 = ADVANCED_FACE ( 'NONE', ( #194, #71 ), #33, .T. ) ;
#191 = DIRECTION ( 'NONE',  ( 3.491481338843133355E-15, -0.0000000000000000000, 1.000000000000000000 ) ) ;
#192 = PLANE ( 'NONE',  #80 ) ;
#193 = DIRECTION ( 'NONE',  ( 0.0000000000000000000, 1.000000000000000000, 0.0000000000000000000 ) ) ;
#194 = FACE_OUTER_BOUND ( 'NONE', #134, .T. ) ;
#195 = CARTESIAN_POINT ( 'NONE',  ( 1.745740669421566678E-13, -6.123233995736766085E-15, 50.00000000000000000 ) ) ;
#196 = PRODUCT_DEFINITION ( 'UNKNOWN', '', #136, #204 ) ;
#197 =( NAMED_UNIT ( * ) SI_UNIT ( $, .STERADIAN. ) SOLID_ANGLE_UNIT ( ) );
#198 = LOCAL_TIME ( 16, 2, 24.00000000000000000, #118 ) ;
#199 = APPROVAL ( #214, 'UNSPECIFIED' ) ;
#200 = CALENDAR_DATE ( 2021, 5, 11 ) ;
#201 = COORDINATED_UNIVERSAL_TIME_OFFSET ( 1, 0, .AHEAD. ) ;
#202 = APPROVAL_DATE_TIME ( #146, #199 ) ;
#203 = ORIENTED_EDGE ( 'NONE', *, *, #175, .F. ) ;
#204 = DESIGN_CONTEXT ( 'detailed design', #81, 'design' ) ;
#205 = APPROVAL_PERSON_ORGANIZATION ( #132, #211, #91 ) ;
#206 = CONICAL_SURFACE ( 'NONE', #180, 1.999999999999997335, 0.7853981633974479459 ) ;
#207 = DIRECTION ( 'NONE',  ( 0.0000000000000000000, 1.000000000000000000, 0.0000000000000000000 ) ) ;
#208 = CARTESIAN_POINT ( 'NONE',  ( 4.888073874380386697E-14, 1.874699728327314346E-32, 14.00000000000000000 ) ) ;
#209 = DIRECTION ( 'NONE',  ( -3.491481338843133355E-15, 1.224646799147353207E-16, -1.000000000000000000 ) ) ;
#210 = AXIS2_PLACEMENT_3D ( 'NONE', #82, #178, #70 ) ;
#211 = APPROVAL ( #43, 'UNSPECIFIED' ) ;
#212 = DIRECTION ( 'NONE',  ( -3.491481338843133355E-15, 1.224646799147353207E-16, -1.000000000000000000 ) ) ;
#213 = DIRECTION ( 'NONE',  ( 0.0000000000000000000, 1.000000000000000000, 0.0000000000000000000 ) ) ;
#214 = APPROVAL_STATUS ( 'not_yet_approved' ) ;
#215 = CIRCLE ( 'NONE', #110, 2.499999999999992895 ) ;
#216 = ADVANCED_FACE ( 'NONE', ( #145 ), #161, .F. ) ;
#217 = VERTEX_POINT ( 'NONE', #130 ) ;
#218 = PERSON_AND_ORGANIZATION ( #47, #123 ) ;
#219 = PERSON_AND_ORGANIZATION_ROLE ( 'design_supplier' ) ;
#220 = MECHANICAL_CONTEXT ( 'NONE', #107, 'mechanical' ) ;
#221 = CONICAL_SURFACE ( 'NONE', #149, 2.500000000000000000, 0.7853981633974423948 ) ;
#222 = ORIENTED_EDGE ( 'NONE', *, *, #13, .F. ) ;
#223 = CC_DESIGN_PERSON_AND_ORGANIZATION_ASSIGNMENT ( #168, #76, ( #99 ) ) ;
ENDSEC;
END-ISO-10303-21;
