ISO-10303-21;
HEADER;
FILE_DESCRIPTION (( 'STEP AP203' ),
    '1' );
FILE_NAME ('960202.step',
    '2021-11-29T14:58:45',
    ( '' ),
    ( '' ),
    'SwSTEP 2.0',
    'SolidWorks 2019',
    '' );
FILE_SCHEMA (( 'CONFIG_CONTROL_DESIGN' ));
ENDSEC;

DATA;
#1 = APPROVAL_ROLE ( '' ) ;
#2 = EDGE_LOOP ( 'NONE', ( #276 ) ) ;
#3 = CONICAL_SURFACE ( 'NONE', #278, 1.200000000000003286, 0.7853981633974453924 ) ;
#4 =( LENGTH_UNIT ( ) NAMED_UNIT ( * ) SI_UNIT ( .MILLI., .METRE. ) );
#5 = PRODUCT_DEFINITION_FORMATION_WITH_SPECIFIED_SOURCE ( 'ANY', '', #122, .NOT_KNOWN. ) ;
#6 = CARTESIAN_POINT ( 'NONE',  ( 1.316288464743861212E-13, -4.616918432785520292E-15, 37.69999999999999574 ) ) ;
#7 = PRODUCT_DEFINITION_SHAPE ( 'NONE', 'NONE',  #36 ) ;
#8 = PERSON_AND_ORGANIZATION ( #208, #102 ) ;
#9 = DIRECTION ( 'NONE',  ( -3.491481338843133355E-15, 1.224646799147352961E-16, -1.000000000000000000 ) ) ;
#10 = ORIENTED_EDGE ( 'NONE', *, *, #77, .F. ) ;
#11 = CONICAL_SURFACE ( 'NONE', #222, 0.6984999999999992326, 0.5235987755982925984 ) ;
#12 = DIRECTION ( 'NONE',  ( -3.491481338843133355E-15, 1.224646799147352961E-16, -1.000000000000000000 ) ) ;
#13 = DATE_AND_TIME ( #224, #34 ) ;
#14 = EDGE_LOOP ( 'NONE', ( #294 ) ) ;
#15 = EDGE_CURVE ( 'NONE', #110, #110, #107, .T. ) ;
#16 = COORDINATED_UNIVERSAL_TIME_OFFSET ( 1, 0, .AHEAD. ) ;
#17 = VERTEX_POINT ( 'NONE', #106 ) ;
#18 = CC_DESIGN_PERSON_AND_ORGANIZATION_ASSIGNMENT ( #154, #108, ( #36 ) ) ;
#19 = AXIS2_PLACEMENT_3D ( 'NONE', #41, #99, #81 ) ;
#20 = DIRECTION ( 'NONE',  ( -3.491481338843133355E-15, 1.224646799147352961E-16, -1.000000000000000000 ) ) ;
#21 = DIRECTION ( 'NONE',  ( -3.491481338843133355E-15, 1.224646799147352961E-16, -1.000000000000000000 ) ) ;
#22 = CC_DESIGN_PERSON_AND_ORGANIZATION_ASSIGNMENT ( #32, #38, ( #297 ) ) ;
#23 = FACE_OUTER_BOUND ( 'NONE', #216, .T. ) ;
#24 = CARTESIAN_POINT ( 'NONE',  ( 4.538925740496073362E-14, -1.734723475976807094E-15, 13.00000000000000000 ) ) ;
#25 = CIRCLE ( 'NONE', #191, 0.6653844939755823029 ) ;
#26 = ADVANCED_FACE ( 'NONE', ( #175, #125 ), #61, .T. ) ;
#27 = PERSON_AND_ORGANIZATION ( #208, #102 ) ;
#28 =( NAMED_UNIT ( * ) PLANE_ANGLE_UNIT ( ) SI_UNIT ( $, .RADIAN. ) );
#29 = AXIS2_PLACEMENT_3D ( 'NONE', #24, #157, #136 ) ;
#30 = PERSON_AND_ORGANIZATION_ROLE ( 'design_supplier' ) ;
#31 = SECURITY_CLASSIFICATION_LEVEL ( 'unclassified' ) ;
#32 = PERSON_AND_ORGANIZATION ( #208, #102 ) ;
#33 = EDGE_LOOP ( 'NONE', ( #210 ) ) ;
#34 = LOCAL_TIME ( 15, 58, 45.00000000000000000, #40 ) ;
#35 = CARTESIAN_POINT ( 'NONE',  ( 4.660183614865709749E-14, -1.634572375883072611E-15, 13.34729635533384773 ) ) ;
#36 = PRODUCT_DEFINITION ( 'UNKNOWN', '', #5, #133 ) ;
#37 = ORIENTED_EDGE ( 'NONE', *, *, #168, .T. ) ;
#38 = PERSON_AND_ORGANIZATION_ROLE ( 'classification_officer' ) ;
#39 = DIRECTION ( 'NONE',  ( 0.0000000000000000000, 1.000000000000000000, 0.0000000000000000000 ) ) ;
#40 = COORDINATED_UNIVERSAL_TIME_OFFSET ( 1, 0, .AHEAD. ) ;
#41 = CARTESIAN_POINT ( 'NONE',  ( 8.728703347107829444E-16, -3.061616997868381169E-17, 0.2499999999999998890 ) ) ;
#42 = APPROVAL_STATUS ( 'not_yet_approved' ) ;
#43 = CARTESIAN_POINT ( 'NONE',  ( 4.538925740496073362E-14, 0.6349999999999984546, 13.00000000000000000 ) ) ;
#44 = DIRECTION ( 'NONE',  ( 0.0000000000000000000, -1.000000000000000000, 0.0000000000000000000 ) ) ;
#45 = LOCAL_TIME ( 15, 58, 45.00000000000000000, #16 ) ;
#46 = DIRECTION ( 'NONE',  ( -4.275831445896957731E-31, -1.000000000000000000, -1.224646799147352961E-16 ) ) ;
#47 = CALENDAR_DATE ( 2021, 29, 11 ) ;
#48 = DIRECTION ( 'NONE',  ( 4.275831445896957731E-31, 1.000000000000000000, 1.224646799147352961E-16 ) ) ;
#49 = DATE_TIME_ROLE ( 'creation_date' ) ;
#50 = CARTESIAN_POINT ( 'NONE',  ( 2.094888803305880013E-14, 0.6984999999999992326, 6.000000000000000000 ) ) ;
#51 = AXIS2_PLACEMENT_3D ( 'NONE', #128, #171, #195 ) ;
#52 = ADVANCED_BREP_SHAPE_REPRESENTATION ( '960202', ( #159, #266, #178 ), #138 ) ;
#53 = AXIS2_PLACEMENT_3D ( 'NONE', #87, #282, #46 ) ;
#54 = ADVANCED_FACE ( 'NONE', ( #272, #126 ), #11, .T. ) ;
#55 = ORIENTED_EDGE ( 'NONE', *, *, #230, .F. ) ;
#56 = DIRECTION ( 'NONE',  ( -3.491481338843133355E-15, 1.224646799147352961E-16, -1.000000000000000000 ) ) ;
#57 = AXIS2_PLACEMENT_3D ( 'NONE', #219, #218, #148 ) ;
#58 = EDGE_LOOP ( 'NONE', ( #291 ) ) ;
#59 = EDGE_LOOP ( 'NONE', ( #176 ) ) ;
#60 = EDGE_CURVE ( 'NONE', #180, #180, #98, .T. ) ;
#61 = CYLINDRICAL_SURFACE ( 'NONE', #243, 0.6349999999999995648 ) ;
#62 = APPROVAL_PERSON_ORGANIZATION ( #27, #121, #1 ) ;
#63 = DIRECTION ( 'NONE',  ( -3.491481338843133355E-15, 1.224646799147352961E-16, -1.000000000000000000 ) ) ;
#64 = DATE_AND_TIME ( #181, #45 ) ;
#65 = FACE_BOUND ( 'NONE', #76, .T. ) ;
#66 = UNCERTAINTY_MEASURE_WITH_UNIT (LENGTH_MEASURE( 1.000000000000000082E-05 ), #4, 'distance_accuracy_value', 'NONE');
#67 = FACE_OUTER_BOUND ( 'NONE', #33, .T. ) ;
#68 = CONICAL_SURFACE ( 'NONE', #127, 0.6349999999999991207, 0.5235987755982917102 ) ;
#69 = VERTEX_POINT ( 'NONE', #234 ) ;
#70 = DIRECTION ( 'NONE',  ( -4.275831445896957731E-31, -1.000000000000000000, -1.224646799147352961E-16 ) ) ;
#71 = CALENDAR_DATE ( 2021, 29, 11 ) ;
#72 = CARTESIAN_POINT ( 'NONE',  ( -5.208608895459254198E-31, 1.826934069751644202E-32, -1.491804878781071715E-16 ) ) ;
#73 = APPLICATION_PROTOCOL_DEFINITION ( 'international standard', 'config_control_design', 1994, #275 ) ;
#74 = AXIS2_PLACEMENT_3D ( 'NONE', #124, #120, #39 ) ;
#75 = VERTEX_POINT ( 'NONE', #50 ) ;
#76 = EDGE_LOOP ( 'NONE', ( #289 ) ) ;
#77 = EDGE_CURVE ( 'NONE', #69, #69, #146, .T. ) ;
#78 = EDGE_LOOP ( 'NONE', ( #37 ) ) ;
#79 = PRODUCT_RELATED_PRODUCT_CATEGORY ( 'detail', '', ( #122 ) ) ;
#80 = DIRECTION ( 'NONE',  ( -3.491481338843133355E-15, 1.224646799147352961E-16, -1.000000000000000000 ) ) ;
#81 = DIRECTION ( 'NONE',  ( 5.514473713349285832E-31, 1.000000000000000000, 1.552186360036514940E-16 ) ) ;
#82 = DIRECTION ( 'NONE',  ( 0.0000000000000000000, 1.000000000000000000, 0.0000000000000000000 ) ) ;
#83 = CARTESIAN_POINT ( 'NONE',  ( 8.728703347107829444E-16, -3.061616997868381169E-17, 0.2499999999999998890 ) ) ;
#84 = CALENDAR_DATE ( 2021, 29, 11 ) ;
#85 = DIRECTION ( 'NONE',  ( 3.491481338843133355E-15, -1.224646799147352961E-16, 1.000000000000000000 ) ) ;
#86 = CC_DESIGN_SECURITY_CLASSIFICATION ( #297, ( #5 ) ) ;
#87 = CARTESIAN_POINT ( 'NONE',  ( 2.094888803305880013E-14, 5.237911040946524066E-33, 6.000000000000000000 ) ) ;
#88 = DATE_TIME_ROLE ( 'classification_date' ) ;
#89 = PLANE ( 'NONE',  #132 ) ;
#90 = CYLINDRICAL_SURFACE ( 'NONE', #271, 0.6984999999999996767 ) ;
#91 = APPROVAL_ROLE ( '' ) ;
#92 = LOCAL_TIME ( 15, 58, 45.00000000000000000, #200 ) ;
#93 = DIRECTION ( 'NONE',  ( -4.275831445896957731E-31, -1.000000000000000000, -1.224646799147352961E-16 ) ) ;
#94 = EDGE_CURVE ( 'NONE', #209, #209, #247, .T. ) ;
#95 = FACE_OUTER_BOUND ( 'NONE', #212, .T. ) ;
#96 = PERSON_AND_ORGANIZATION ( #208, #102 ) ;
#97 = CIRCLE ( 'NONE', #240, 0.6985000000000000098 ) ;
#98 = CIRCLE ( 'NONE', #287, 1.499999999999997558 ) ;
#99 = DIRECTION ( 'NONE',  ( -3.491481338843133355E-15, 1.224646799147352961E-16, -1.000000000000000000 ) ) ;
#100 = DIRECTION ( 'NONE',  ( -5.514473713349285832E-31, -1.000000000000000000, -1.552186360036514940E-16 ) ) ;
#101 = DIRECTION ( 'NONE',  ( 0.0000000000000000000, 1.000000000000000000, 0.0000000000000000000 ) ) ;
#102 = ORGANIZATION ( 'UNSPECIFIED', 'UNSPECIFIED', '' ) ;
#103 = DIRECTION ( 'NONE',  ( 0.0000000000000000000, 1.000000000000000000, 0.0000000000000000000 ) ) ;
#104 = CARTESIAN_POINT ( 'NONE',  ( 2.094888803305880013E-14, -7.347880794884118750E-16, 6.000000000000000000 ) ) ;
#105 = EDGE_CURVE ( 'NONE', #303, #303, #253, .T. ) ;
#106 = CARTESIAN_POINT ( 'NONE',  ( 4.660183614865709749E-14, 0.6653844939755806376, 13.34729635533384773 ) ) ;
#107 = CIRCLE ( 'NONE', #57, 0.6349999999999991207 ) ;
#108 = PERSON_AND_ORGANIZATION_ROLE ( 'creator' ) ;
#109 = DIRECTION ( 'NONE',  ( -3.491481338843133355E-15, 1.224646799147352961E-16, -1.000000000000000000 ) ) ;
#110 = VERTEX_POINT ( 'NONE', #130 ) ;
#111 = EDGE_CURVE ( 'NONE', #162, #162, #185, .T. ) ;
#112 = CARTESIAN_POINT ( 'NONE',  ( -2.604304447729627099E-31, 9.134670348758221011E-33, -7.459024393905358574E-17 ) ) ;
#113 = DIRECTION ( 'NONE',  ( 4.275831445896956855E-31, 1.000000000000000000, 1.224646799147352714E-16 ) ) ;
#114 = EDGE_LOOP ( 'NONE', ( #152 ) ) ;
#115 = CC_DESIGN_PERSON_AND_ORGANIZATION_ASSIGNMENT ( #144, #30, ( #5 ) ) ;
#116 = AXIS2_PLACEMENT_3D ( 'NONE', #72, #280, #113 ) ;
#117 = EDGE_LOOP ( 'NONE', ( #286 ) ) ;
#118 = ORIENTED_EDGE ( 'NONE', *, *, #168, .F. ) ;
#119 = CC_DESIGN_APPROVAL ( #172, ( #5 ) ) ;
#120 = DIRECTION ( 'NONE',  ( -3.491481338843133355E-15, 1.224646799147352961E-16, -1.000000000000000000 ) ) ;
#121 = APPROVAL ( #165, 'UNSPECIFIED' ) ;
#122 = PRODUCT ( '960202', '960202', '', ( #259 ) ) ;
#123 = APPROVAL_DATE_TIME ( #193, #172 ) ;
#124 = CARTESIAN_POINT ( 'NONE',  ( 1.326762908760390423E-13, -4.653657836759941152E-15, 38.00000000000000000 ) ) ;
#125 = FACE_OUTER_BOUND ( 'NONE', #167, .T. ) ;
#126 = FACE_OUTER_BOUND ( 'NONE', #59, .T. ) ;
#127 = AXIS2_PLACEMENT_3D ( 'NONE', #149, #56, #223 ) ;
#128 = CARTESIAN_POINT ( 'NONE',  ( 4.538925740496073362E-14, -1.592040838891558701E-15, 13.00000000000000000 ) ) ;
#129 = FACE_OUTER_BOUND ( 'NONE', #246, .T. ) ;
#130 = CARTESIAN_POINT ( 'NONE',  ( 2.133289939816604760E-14, 0.6349999999999984546, 6.109985226280627124 ) ) ;
#131 = SHAPE_DEFINITION_REPRESENTATION ( #7, #52 ) ;
#132 = AXIS2_PLACEMENT_3D ( 'NONE', #252, #109, #48 ) ;
#133 = DESIGN_CONTEXT ( 'detailed design', #275, 'design' ) ;
#134 = FACE_BOUND ( 'NONE', #117, .T. ) ;
#135 = COORDINATED_UNIVERSAL_TIME_OFFSET ( 1, 0, .AHEAD. ) ;
#136 = DIRECTION ( 'NONE',  ( 4.275831445896957731E-31, 1.000000000000000000, 1.224646799147352961E-16 ) ) ;
#137 = FACE_OUTER_BOUND ( 'NONE', #2, .T. ) ;
#138 =( GEOMETRIC_REPRESENTATION_CONTEXT ( 3 ) GLOBAL_UNCERTAINTY_ASSIGNED_CONTEXT ( ( #66 ) ) GLOBAL_UNIT_ASSIGNED_CONTEXT ( ( #4, #28, #211 ) ) REPRESENTATION_CONTEXT ( 'NONE', 'WORKASPACE' ) );
#139 = APPROVAL_ROLE ( '' ) ;
#140 = CARTESIAN_POINT ( 'NONE',  ( -2.839103739574743020E-31, 0.5541624327025949093, -8.131516293641284488E-17 ) ) ;
#141 = DIRECTION ( 'NONE',  ( 1.000000000000000000, 0.0000000000000000000, 0.0000000000000000000 ) ) ;
#142 = CC_DESIGN_APPROVAL ( #121, ( #36 ) ) ;
#143 = ADVANCED_FACE ( 'NONE', ( #270, #220 ), #68, .T. ) ;
#144 = PERSON_AND_ORGANIZATION ( #208, #102 ) ;
#145 = ORIENTED_EDGE ( 'NONE', *, *, #111, .T. ) ;
#146 = CIRCLE ( 'NONE', #74, 1.200000000000003286 ) ;
#147 = DIRECTION ( 'NONE',  ( 4.275831445896958607E-31, 1.000000000000000000, 1.224646799147352961E-16 ) ) ;
#148 = DIRECTION ( 'NONE',  ( 0.0000000000000000000, 1.000000000000000000, 0.0000000000000000000 ) ) ;
#149 = CARTESIAN_POINT ( 'NONE',  ( 2.133289939816604760E-14, -7.482573850202185364E-16, 6.109985226280627124 ) ) ;
#150 = CARTESIAN_POINT ( 'NONE',  ( 6.312820354112949411E-14, -2.214239312766386484E-15, 18.08063610102134433 ) ) ;
#151 = CONICAL_SURFACE ( 'NONE', #239, 1.499999999999997558, 0.1745329251994258701 ) ;
#152 = ORIENTED_EDGE ( 'NONE', *, *, #111, .F. ) ;
#153 = CARTESIAN_POINT ( 'NONE',  ( 1.326762908760390423E-13, -4.653657836759941152E-15, 38.00000000000000000 ) ) ;
#154 = PERSON_AND_ORGANIZATION ( #208, #102 ) ;
#155 = PLANE ( 'NONE',  #53 ) ;
#156 = AXIS2_PLACEMENT_3D ( 'NONE', #104, #12, #103 ) ;
#157 = DIRECTION ( 'NONE',  ( -3.491481338843133355E-15, 1.224646799147352961E-16, -1.000000000000000000 ) ) ;
#158 = DIRECTION ( 'NONE',  ( 4.275831445896957731E-31, 1.000000000000000000, 1.224646799147353207E-16 ) ) ;
#159 = MANIFOLD_SOLID_BREP ( 'Corps-Déplacer/Copier1[1]', #163 ) ;
#160 = EDGE_CURVE ( 'NONE', #17, #17, #25, .T. ) ;
#161 = DATE_AND_TIME ( #71, #92 ) ;
#162 = VERTEX_POINT ( 'NONE', #43 ) ;
#163 = CLOSED_SHELL ( 'NONE', ( #257, #143, #26, #188, #265, #296, #236, #233 ) ) ;
#164 = CC_DESIGN_DATE_AND_TIME_ASSIGNMENT ( #161, #49, ( #36 ) ) ;
#165 = APPROVAL_STATUS ( 'not_yet_approved' ) ;
#166 = CARTESIAN_POINT ( 'NONE',  ( 0.0000000000000000000, 0.0000000000000000000, 0.0000000000000000000 ) ) ;
#167 = EDGE_LOOP ( 'NONE', ( #145 ) ) ;
#168 = EDGE_CURVE ( 'NONE', #203, #203, #267, .T. ) ;
#169 = CIRCLE ( 'NONE', #116, 0.5541624327025949093 ) ;
#170 = EDGE_LOOP ( 'NONE', ( #55 ) ) ;
#171 = DIRECTION ( 'NONE',  ( -3.491481338843133355E-15, 1.224646799147352961E-16, -1.000000000000000000 ) ) ;
#172 = APPROVAL ( #261, 'UNSPECIFIED' ) ;
#173 = AXIS2_PLACEMENT_3D ( 'NONE', #112, #281, #70 ) ;
#174 = EDGE_LOOP ( 'NONE', ( #190 ) ) ;
#175 = FACE_OUTER_BOUND ( 'NONE', #174, .T. ) ;
#176 = ORIENTED_EDGE ( 'NONE', *, *, #105, .T. ) ;
#177 = DIRECTION ( 'NONE',  ( -3.491481338843133355E-15, 1.224646799147352961E-16, -1.000000000000000000 ) ) ;
#178 = AXIS2_PLACEMENT_3D ( 'NONE', #166, #263, #141 ) ;
#179 = EDGE_CURVE ( 'NONE', #75, #75, #97, .T. ) ;
#180 = VERTEX_POINT ( 'NONE', #206 ) ;
#181 = CALENDAR_DATE ( 2021, 29, 11 ) ;
#182 = DIRECTION ( 'NONE',  ( 3.491481338843133355E-15, -1.224646799147352961E-16, 1.000000000000000000 ) ) ;
#183 = PLANE ( 'NONE',  #173 ) ;
#184 = APPROVAL ( #42, 'UNSPECIFIED' ) ;
#185 = CIRCLE ( 'NONE', #51, 0.6350000000000000089 ) ;
#186 = FACE_OUTER_BOUND ( 'NONE', #58, .T. ) ;
#187 = CYLINDRICAL_SURFACE ( 'NONE', #198, 1.500000000000000444 ) ;
#188 = ADVANCED_FACE ( 'NONE', ( #197, #202 ), #302, .F. ) ;
#189 = PERSON_AND_ORGANIZATION_ROLE ( 'design_owner' ) ;
#190 = ORIENTED_EDGE ( 'NONE', *, *, #15, .F. ) ;
#191 = AXIS2_PLACEMENT_3D ( 'NONE', #35, #177, #101 ) ;
#192 = ORIENTED_EDGE ( 'NONE', *, *, #94, .T. ) ;
#193 = DATE_AND_TIME ( #47, #217 ) ;
#194 = EDGE_LOOP ( 'NONE', ( #10 ) ) ;
#195 = DIRECTION ( 'NONE',  ( 0.0000000000000000000, 1.000000000000000000, 0.0000000000000000000 ) ) ;
#196 = PERSON_AND_ORGANIZATION_ROLE ( 'creator' ) ;
#197 = FACE_OUTER_BOUND ( 'NONE', #114, .T. ) ;
#198 = AXIS2_PLACEMENT_3D ( 'NONE', #258, #21, #158 ) ;
#199 = EDGE_LOOP ( 'NONE', ( #118 ) ) ;
#200 = COORDINATED_UNIVERSAL_TIME_OFFSET ( 1, 0, .AHEAD. ) ;
#201 = ADVANCED_FACE ( 'NONE', ( #295 ), #300, .T. ) ;
#202 = FACE_OUTER_BOUND ( 'NONE', #244, .T. ) ;
#203 = VERTEX_POINT ( 'NONE', #228 ) ;
#204 = AXIS2_PLACEMENT_3D ( 'NONE', #207, #301, #93 ) ;
#205 = CARTESIAN_POINT ( 'NONE',  ( 1.316288464743861212E-13, 1.499999999999998668, 37.69999999999999574 ) ) ;
#206 = CARTESIAN_POINT ( 'NONE',  ( 6.312820354112949411E-14, 1.499999999999995559, 18.08063610102134433 ) ) ;
#207 = CARTESIAN_POINT ( 'NONE',  ( 2.094888803305880013E-14, 5.237911040946524066E-33, 6.000000000000000000 ) ) ;
#208 = PERSON ( 'UNSPECIFIED', 'UNSPECIFIED', 'UNSPECIFIED', ('UNSPECIFIED'), ('UNSPECIFIED'), ('UNSPECIFIED') ) ;
#209 = VERTEX_POINT ( 'NONE', #205 ) ;
#210 = ORIENTED_EDGE ( 'NONE', *, *, #60, .F. ) ;
#211 =( NAMED_UNIT ( * ) SI_UNIT ( $, .STERADIAN. ) SOLID_ANGLE_UNIT ( ) );
#212 = EDGE_LOOP ( 'NONE', ( #192 ) ) ;
#213 = COORDINATED_UNIVERSAL_TIME_OFFSET ( 1, 0, .AHEAD. ) ;
#214 = CC_DESIGN_DATE_AND_TIME_ASSIGNMENT ( #13, #88, ( #297 ) ) ;
#215 = EDGE_LOOP ( 'NONE', ( #262 ) ) ;
#216 = EDGE_LOOP ( 'NONE', ( #242 ) ) ;
#217 = LOCAL_TIME ( 15, 58, 45.00000000000000000, #213 ) ;
#218 = DIRECTION ( 'NONE',  ( -3.491481338843133355E-15, 1.224646799147352961E-16, -1.000000000000000000 ) ) ;
#219 = CARTESIAN_POINT ( 'NONE',  ( 2.133289939816604760E-14, -7.482573850202185364E-16, 6.109985226280627124 ) ) ;
#220 = FACE_BOUND ( 'NONE', #14, .T. ) ;
#221 = ADVANCED_FACE ( 'NONE', ( #186, #137 ), #90, .T. ) ;
#222 = AXIS2_PLACEMENT_3D ( 'NONE', #83, #85, #100 ) ;
#223 = DIRECTION ( 'NONE',  ( 0.0000000000000000000, 1.000000000000000000, 0.0000000000000000000 ) ) ;
#224 = CALENDAR_DATE ( 2021, 29, 11 ) ;
#225 = CARTESIAN_POINT ( 'NONE',  ( 2.094888803305880013E-14, -7.347880794884118750E-16, 6.000000000000000000 ) ) ;
#226 = CARTESIAN_POINT ( 'NONE',  ( 6.312820354112949411E-14, -2.214239312766386484E-15, 18.08063610102134433 ) ) ;
#227 = APPROVAL_DATE_TIME ( #64, #121 ) ;
#228 = CARTESIAN_POINT ( 'NONE',  ( 2.094888803305880013E-14, 0.6984999999999992326, 6.000000000000000000 ) ) ;
#229 = LOCAL_TIME ( 15, 58, 45.00000000000000000, #135 ) ;
#230 = EDGE_CURVE ( 'NONE', #237, #237, #169, .T. ) ;
#231 = DIRECTION ( 'NONE',  ( 0.0000000000000000000, 1.000000000000000000, 0.0000000000000000000 ) ) ;
#232 = FACE_OUTER_BOUND ( 'NONE', #215, .T. ) ;
#233 = ADVANCED_FACE ( 'NONE', ( #299 ), #89, .F. ) ;
#234 = CARTESIAN_POINT ( 'NONE',  ( 1.326762908760390423E-13, 1.199999999999998845, 38.00000000000000000 ) ) ;
#235 = APPLICATION_PROTOCOL_DEFINITION ( 'international standard', 'config_control_design', 1994, #256 ) ;
#236 = ADVANCED_FACE ( 'NONE', ( #232, #65 ), #3, .T. ) ;
#237 = VERTEX_POINT ( 'NONE', #140 ) ;
#238 = PERSON_AND_ORGANIZATION ( #208, #102 ) ;
#239 = AXIS2_PLACEMENT_3D ( 'NONE', #226, #182, #44 ) ;
#240 = AXIS2_PLACEMENT_3D ( 'NONE', #225, #63, #82 ) ;
#241 = APPROVAL_PERSON_ORGANIZATION ( #250, #184, #91 ) ;
#242 = ORIENTED_EDGE ( 'NONE', *, *, #230, .T. ) ;
#243 = AXIS2_PLACEMENT_3D ( 'NONE', #273, #80, #147 ) ;
#244 = EDGE_LOOP ( 'NONE', ( #245 ) ) ;
#245 = ORIENTED_EDGE ( 'NONE', *, *, #160, .T. ) ;
#246 = EDGE_LOOP ( 'NONE', ( #249 ) ) ;
#247 = CIRCLE ( 'NONE', #292, 1.500000000000003331 ) ;
#248 = DIRECTION ( 'NONE',  ( 0.0000000000000000000, 1.000000000000000000, 0.0000000000000000000 ) ) ;
#249 = ORIENTED_EDGE ( 'NONE', *, *, #60, .T. ) ;
#250 = PERSON_AND_ORGANIZATION ( #208, #102 ) ;
#251 = FACE_OUTER_BOUND ( 'NONE', #78, .T. ) ;
#252 = CARTESIAN_POINT ( 'NONE',  ( 1.326762908760390423E-13, 8.998558695971099120E-33, 38.00000000000000000 ) ) ;
#253 = CIRCLE ( 'NONE', #19, 0.6984999999999992326 ) ;
#254 = DATE_AND_TIME ( #84, #229 ) ;
#255 = DIRECTION ( 'NONE',  ( 4.275831445896957731E-31, 1.000000000000000000, 1.224646799147352961E-16 ) ) ;
#256 = APPLICATION_CONTEXT ( 'configuration controlled 3d designs of mechanical parts and assemblies' ) ;
#257 = ADVANCED_FACE ( 'NONE', ( #251 ), #155, .F. ) ;
#258 = CARTESIAN_POINT ( 'NONE',  ( 0.0000000000000000000, 0.0000000000000000000, 0.0000000000000000000 ) ) ;
#259 = MECHANICAL_CONTEXT ( 'NONE', #256, 'mechanical' ) ;
#260 = APPROVAL_PERSON_ORGANIZATION ( #238, #172, #139 ) ;
#261 = APPROVAL_STATUS ( 'not_yet_approved' ) ;
#262 = ORIENTED_EDGE ( 'NONE', *, *, #94, .F. ) ;
#263 = DIRECTION ( 'NONE',  ( 0.0000000000000000000, 0.0000000000000000000, 1.000000000000000000 ) ) ;
#264 = EDGE_LOOP ( 'NONE', ( #269 ) ) ;
#265 = ADVANCED_FACE ( 'NONE', ( #134, #129 ), #151, .T. ) ;
#266 = MANIFOLD_SOLID_BREP ( 'Corps-Déplacer/Copier1[2]', #290 ) ;
#267 = CIRCLE ( 'NONE', #156, 0.6985000000000000098 ) ;
#268 = CC_DESIGN_APPROVAL ( #184, ( #297 ) ) ;
#269 = ORIENTED_EDGE ( 'NONE', *, *, #179, .F. ) ;
#270 = FACE_OUTER_BOUND ( 'NONE', #199, .T. ) ;
#271 = AXIS2_PLACEMENT_3D ( 'NONE', #284, #20, #255 ) ;
#272 = FACE_BOUND ( 'NONE', #170, .T. ) ;
#273 = CARTESIAN_POINT ( 'NONE',  ( 0.0000000000000000000, 0.0000000000000000000, 0.0000000000000000000 ) ) ;
#274 = CC_DESIGN_PERSON_AND_ORGANIZATION_ASSIGNMENT ( #8, #196, ( #5 ) ) ;
#275 = APPLICATION_CONTEXT ( 'configuration controlled 3d designs of mechanical parts and assemblies' ) ;
#276 = ORIENTED_EDGE ( 'NONE', *, *, #179, .T. ) ;
#277 = ADVANCED_FACE ( 'NONE', ( #23 ), #183, .F. ) ;
#278 = AXIS2_PLACEMENT_3D ( 'NONE', #153, #298, #231 ) ;
#279 = DIRECTION ( 'NONE',  ( -3.491481338843133355E-15, 1.224646799147352961E-16, -1.000000000000000000 ) ) ;
#280 = DIRECTION ( 'NONE',  ( -3.491481338843133355E-15, 1.224646799147352961E-16, -1.000000000000000000 ) ) ;
#281 = DIRECTION ( 'NONE',  ( 3.491481338843133355E-15, -1.224646799147352961E-16, 1.000000000000000000 ) ) ;
#282 = DIRECTION ( 'NONE',  ( 3.491481338843133355E-15, -1.224646799147352961E-16, 1.000000000000000000 ) ) ;
#283 = APPROVAL_DATE_TIME ( #254, #184 ) ;
#284 = CARTESIAN_POINT ( 'NONE',  ( 0.0000000000000000000, 0.0000000000000000000, 0.0000000000000000000 ) ) ;
#285 = CARTESIAN_POINT ( 'NONE',  ( 8.728703347107833388E-16, 0.6984999999999992326, 0.2500000000000000000 ) ) ;
#286 = ORIENTED_EDGE ( 'NONE', *, *, #160, .F. ) ;
#287 = AXIS2_PLACEMENT_3D ( 'NONE', #150, #279, #248 ) ;
#288 = CC_DESIGN_PERSON_AND_ORGANIZATION_ASSIGNMENT ( #96, #189, ( #122 ) ) ;
#289 = ORIENTED_EDGE ( 'NONE', *, *, #77, .T. ) ;
#290 = CLOSED_SHELL ( 'NONE', ( #277, #54, #221, #201 ) ) ;
#291 = ORIENTED_EDGE ( 'NONE', *, *, #105, .F. ) ;
#292 = AXIS2_PLACEMENT_3D ( 'NONE', #6, #9, #293 ) ;
#293 = DIRECTION ( 'NONE',  ( 0.0000000000000000000, 1.000000000000000000, 0.0000000000000000000 ) ) ;
#294 = ORIENTED_EDGE ( 'NONE', *, *, #15, .T. ) ;
#295 = FACE_OUTER_BOUND ( 'NONE', #264, .T. ) ;
#296 = ADVANCED_FACE ( 'NONE', ( #67, #95 ), #187, .T. ) ;
#297 = SECURITY_CLASSIFICATION ( '', '', #31 ) ;
#298 = DIRECTION ( 'NONE',  ( -3.491481338843133355E-15, 1.224646799147352961E-16, -1.000000000000000000 ) ) ;
#299 = FACE_OUTER_BOUND ( 'NONE', #194, .T. ) ;
#300 = PLANE ( 'NONE',  #204 ) ;
#301 = DIRECTION ( 'NONE',  ( 3.491481338843133355E-15, -1.224646799147352961E-16, 1.000000000000000000 ) ) ;
#302 = TOROIDAL_SURFACE ( 'NONE', #29, 2.635000000000000231, 2.000000000000000000 ) ;
#303 = VERTEX_POINT ( 'NONE', #285 ) ;
ENDSEC;
END-ISO-10303-21;
