ISO-10303-21;
HEADER;
FILE_DESCRIPTION (( 'STEP AP203' ),
    '1' );
FILE_NAME ('960194.step',
    '2021-10-13T12:57:20',
    ( '' ),
    ( '' ),
    'SwSTEP 2.0',
    'SolidWorks 2019',
    '' );
FILE_SCHEMA (( 'CONFIG_CONTROL_DESIGN' ));
ENDSEC;

DATA;
#1 = COORDINATED_UNIVERSAL_TIME_OFFSET ( 1, 0, .AHEAD. ) ;
#2 = AXIS2_PLACEMENT_3D ( 'NONE', #103, #101, #165 ) ;
#3 = CIRCLE ( 'NONE', #143, 4.999999999999995559 ) ;
#4 = ORIENTED_EDGE ( 'NONE', *, *, #137, .T. ) ;
#5 = CIRCLE ( 'NONE', #154, 4.999999999999995559 ) ;
#6 = ORIENTED_EDGE ( 'NONE', *, *, #202, .F. ) ;
#7 = CONICAL_SURFACE ( 'NONE', #201, 4.999999999999987566, 1.221730476396026610 ) ;
#8 = DIRECTION ( 'NONE',  ( 4.622231866529377433E-31, 1.000000000000000000, 1.301042606982608526E-16 ) ) ;
#9 = CARTESIAN_POINT ( 'NONE',  ( 2.269462870248037060E-13, -7.960204194457797252E-15, 65.00000000000000000 ) ) ;
#10 = MECHANICAL_CONTEXT ( 'NONE', #138, 'mechanical' ) ;
#11 = DIRECTION ( 'NONE',  ( 0.0000000000000000000, 1.000000000000000000, 0.0000000000000000000 ) ) ;
#12 = DATE_AND_TIME ( #94, #185 ) ;
#13 = APPROVAL_PERSON_ORGANIZATION ( #43, #23, #96 ) ;
#14 = FACE_OUTER_BOUND ( 'NONE', #53, .T. ) ;
#15 = DIRECTION ( 'NONE',  ( -3.491481338843133355E-15, 1.224646799147353207E-16, -1.000000000000000000 ) ) ;
#16 = ORIENTED_EDGE ( 'NONE', *, *, #97, .F. ) ;
#17 = EDGE_LOOP ( 'NONE', ( #160 ) ) ;
#18 = CC_DESIGN_SECURITY_CLASSIFICATION ( #49, ( #52 ) ) ;
#19 = PERSON_AND_ORGANIZATION_ROLE ( 'classification_officer' ) ;
#20 = EDGE_CURVE ( 'NONE', #107, #107, #3, .T. ) ;
#21 =( GEOMETRIC_REPRESENTATION_CONTEXT ( 3 ) GLOBAL_UNCERTAINTY_ASSIGNED_CONTEXT ( ( #72 ) ) GLOBAL_UNIT_ASSIGNED_CONTEXT ( ( #68, #152, #40 ) ) REPRESENTATION_CONTEXT ( 'NONE', 'WORKASPACE' ) );
#22 = EDGE_LOOP ( 'NONE', ( #109 ) ) ;
#23 = APPROVAL ( #54, 'UNSPECIFIED' ) ;
#24 = AXIS2_PLACEMENT_3D ( 'NONE', #179, #15, #200 ) ;
#25 = CARTESIAN_POINT ( 'NONE',  ( 0.0000000000000000000, 0.0000000000000000000, 0.0000000000000000000 ) ) ;
#26 = CARTESIAN_POINT ( 'NONE',  ( 2.269462870248037060E-13, 4.999999999999987566, 65.00000000000000000 ) ) ;
#27 = AXIS2_PLACEMENT_3D ( 'NONE', #32, #115, #131 ) ;
#28 = APPLICATION_PROTOCOL_DEFINITION ( 'international standard', 'config_control_design', 1994, #189 ) ;
#29 = DIRECTION ( 'NONE',  ( -4.275831445896958607E-31, -1.000000000000000000, -1.224646799147353207E-16 ) ) ;
#30 = PERSON_AND_ORGANIZATION ( #127, #91 ) ;
#31 = DIRECTION ( 'NONE',  ( 3.491481338843133355E-15, -1.224646799147353207E-16, 1.000000000000000000 ) ) ;
#32 = CARTESIAN_POINT ( 'NONE',  ( 4.119947979834897107E-13, 2.999519565323694963E-32, 118.0000000000000000 ) ) ;
#33 = APPROVAL_PERSON_ORGANIZATION ( #164, #159, #45 ) ;
#34 = FACE_OUTER_BOUND ( 'NONE', #79, .T. ) ;
#35 = DATE_TIME_ROLE ( 'classification_date' ) ;
#36 = CLOSED_SHELL ( 'NONE', ( #38, #85, #173, #89 ) ) ;
#37 = PERSON_AND_ORGANIZATION ( #127, #91 ) ;
#38 = ADVANCED_FACE ( 'NONE', ( #34 ), #118, .F. ) ;
#39 = ADVANCED_FACE ( 'NONE', ( #42 ), #7, .T. ) ;
#40 =( NAMED_UNIT ( * ) SI_UNIT ( $, .STERADIAN. ) SOLID_ANGLE_UNIT ( ) );
#41 = CARTESIAN_POINT ( 'NONE',  ( 4.085033166446465899E-13, 4.999999999999987566, 117.0000000000000000 ) ) ;
#42 = FACE_OUTER_BOUND ( 'NONE', #158, .T. ) ;
#43 = PERSON_AND_ORGANIZATION ( #127, #91 ) ;
#44 = DIRECTION ( 'NONE',  ( 3.491481338843133355E-15, -1.224646799147353207E-16, 1.000000000000000000 ) ) ;
#45 = APPROVAL_ROLE ( '' ) ;
#46 = CARTESIAN_POINT ( 'NONE',  ( 6.353976404174112936E-15, -2.228674911895109038E-16, 1.819851171331031026 ) ) ;
#47 = APPROVAL_STATUS ( 'not_yet_approved' ) ;
#48 = CC_DESIGN_PERSON_AND_ORGANIZATION_ASSIGNMENT ( #114, #172, ( #181 ) ) ;
#49 = SECURITY_CLASSIFICATION ( '', '', #182 ) ;
#50 = DIRECTION ( 'NONE',  ( -3.491481338843133355E-15, 1.224646799147353207E-16, -1.000000000000000000 ) ) ;
#51 = DATE_AND_TIME ( #186, #139 ) ;
#52 = PRODUCT_DEFINITION_FORMATION_WITH_SPECIFIED_SOURCE ( 'ANY', '', #181, .NOT_KNOWN. ) ;
#53 = EDGE_LOOP ( 'NONE', ( #112 ) ) ;
#54 = APPROVAL_STATUS ( 'not_yet_approved' ) ;
#55 = DIRECTION ( 'NONE',  ( -3.491481338843133355E-15, 1.224646799147353207E-16, -1.000000000000000000 ) ) ;
#56 = CARTESIAN_POINT ( 'NONE',  ( 4.119947979834897107E-13, 3.999999999999988010, 118.0000000000000000 ) ) ;
#57 = DIRECTION ( 'NONE',  ( 4.275831445896958607E-31, 1.000000000000000000, 1.224646799147353207E-16 ) ) ;
#58 = LOCAL_TIME ( 14, 57, 20.00000000000000000, #124 ) ;
#59 = CALENDAR_DATE ( 2021, 13, 10 ) ;
#60 = DIRECTION ( 'NONE',  ( 0.0000000000000000000, 1.000000000000000000, 0.0000000000000000000 ) ) ;
#61 = CYLINDRICAL_SURFACE ( 'NONE', #111, 4.999999999999999112 ) ;
#62 = ADVANCED_FACE ( 'NONE', ( #83 ), #121, .T. ) ;
#63 = CARTESIAN_POINT ( 'NONE',  ( 4.119947979834897107E-13, -1.445083222993876641E-14, 118.0000000000000000 ) ) ;
#64 = EDGE_LOOP ( 'NONE', ( #191 ) ) ;
#65 = APPROVAL_PERSON_ORGANIZATION ( #37, #67, #88 ) ;
#66 = CC_DESIGN_DATE_AND_TIME_ASSIGNMENT ( #128, #102, ( #187 ) ) ;
#67 = APPROVAL ( #47, 'UNSPECIFIED' ) ;
#68 =( LENGTH_UNIT ( ) NAMED_UNIT ( * ) SI_UNIT ( .MILLI., .METRE. ) );
#69 = CARTESIAN_POINT ( 'NONE',  ( 2.269462870248037060E-13, 3.749399456654629240E-32, 65.00000000000000000 ) ) ;
#70 = COORDINATED_UNIVERSAL_TIME_OFFSET ( 1, 0, .AHEAD. ) ;
#71 = EDGE_LOOP ( 'NONE', ( #16 ) ) ;
#72 = UNCERTAINTY_MEASURE_WITH_UNIT (LENGTH_MEASURE( 1.000000000000000082E-05 ), #68, 'distance_accuracy_value', 'NONE');
#73 = CYLINDRICAL_SURFACE ( 'NONE', #122, 4.999999999999992006 ) ;
#74 = DIRECTION ( 'NONE',  ( -3.491481338843133355E-15, 1.224646799147353207E-16, -1.000000000000000000 ) ) ;
#75 = PERSON_AND_ORGANIZATION ( #127, #91 ) ;
#76 = AXIS2_PLACEMENT_3D ( 'NONE', #197, #74, #8 ) ;
#77 = LOCAL_TIME ( 14, 57, 20.00000000000000000, #192 ) ;
#78 = PRODUCT_DEFINITION_SHAPE ( 'NONE', 'NONE',  #187 ) ;
#79 = EDGE_LOOP ( 'NONE', ( #203 ) ) ;
#80 = VERTEX_POINT ( 'NONE', #163 ) ;
#81 = CC_DESIGN_PERSON_AND_ORGANIZATION_ASSIGNMENT ( #75, #19, ( #49 ) ) ;
#82 = PERSON_AND_ORGANIZATION ( #127, #91 ) ;
#83 = FACE_OUTER_BOUND ( 'NONE', #71, .T. ) ;
#84 = CARTESIAN_POINT ( 'NONE',  ( 0.0000000000000000000, 0.0000000000000000000, 0.0000000000000000000 ) ) ;
#85 = ADVANCED_FACE ( 'NONE', ( #135, #87 ), #61, .T. ) ;
#86 = DIRECTION ( 'NONE',  ( -3.491481338843133355E-15, 1.224646799147353207E-16, -1.000000000000000000 ) ) ;
#87 = FACE_OUTER_BOUND ( 'NONE', #64, .T. ) ;
#88 = APPROVAL_ROLE ( '' ) ;
#89 = ADVANCED_FACE ( 'NONE', ( #132 ), #168, .F. ) ;
#90 = MANIFOLD_SOLID_BREP ( 'Corps-Déplacer/Copier1[2]', #119 ) ;
#91 = ORGANIZATION ( 'UNSPECIFIED', 'UNSPECIFIED', '' ) ;
#92 = CIRCLE ( 'NONE', #24, 5.000000000000002665 ) ;
#93 = MANIFOLD_SOLID_BREP ( 'Corps-Déplacer/Copier1[1]', #36 ) ;
#94 = CALENDAR_DATE ( 2021, 13, 10 ) ;
#95 = CC_DESIGN_PERSON_AND_ORGANIZATION_ASSIGNMENT ( #166, #155, ( #52 ) ) ;
#96 = APPROVAL_ROLE ( '' ) ;
#97 = EDGE_CURVE ( 'NONE', #80, #80, #5, .T. ) ;
#98 = VERTEX_POINT ( 'NONE', #175 ) ;
#99 = AXIS2_PLACEMENT_3D ( 'NONE', #184, #50, #193 ) ;
#100 = PERSON_AND_ORGANIZATION_ROLE ( 'creator' ) ;
#101 = DIRECTION ( 'NONE',  ( 3.491481338843133355E-15, -1.224646799147353207E-16, 1.000000000000000000 ) ) ;
#102 = DATE_TIME_ROLE ( 'creation_date' ) ;
#103 = CARTESIAN_POINT ( 'NONE',  ( 2.269462870248037060E-13, 3.749399456654629240E-32, 65.00000000000000000 ) ) ;
#104 = PERSON_AND_ORGANIZATION_ROLE ( 'creator' ) ;
#105 = AXIS2_PLACEMENT_3D ( 'NONE', #63, #55, #11 ) ;
#106 = DATE_AND_TIME ( #108, #58 ) ;
#107 = VERTEX_POINT ( 'NONE', #26 ) ;
#108 = CALENDAR_DATE ( 2021, 13, 10 ) ;
#109 = ORIENTED_EDGE ( 'NONE', *, *, #20, .F. ) ;
#110 = ADVANCED_FACE ( 'NONE', ( #14, #195 ), #73, .T. ) ;
#111 = AXIS2_PLACEMENT_3D ( 'NONE', #84, #148, #150 ) ;
#112 = ORIENTED_EDGE ( 'NONE', *, *, #137, .F. ) ;
#113 = CC_DESIGN_APPROVAL ( #23, ( #187 ) ) ;
#114 = PERSON_AND_ORGANIZATION ( #127, #91 ) ;
#115 = DIRECTION ( 'NONE',  ( -3.491481338843133355E-15, 1.224646799147353207E-16, -1.000000000000000000 ) ) ;
#116 = APPLICATION_PROTOCOL_DEFINITION ( 'international standard', 'config_control_design', 1994, #138 ) ;
#117 = FACE_OUTER_BOUND ( 'NONE', #17, .T. ) ;
#118 = PLANE ( 'NONE',  #126 ) ;
#119 = CLOSED_SHELL ( 'NONE', ( #110, #62, #39 ) ) ;
#120 = CARTESIAN_POINT ( 'NONE',  ( 0.0000000000000000000, 0.0000000000000000000, 0.0000000000000000000 ) ) ;
#121 = PLANE ( 'NONE',  #2 ) ;
#122 = AXIS2_PLACEMENT_3D ( 'NONE', #120, #149, #57 ) ;
#123 = EDGE_CURVE ( 'NONE', #146, #146, #92, .T. ) ;
#124 = COORDINATED_UNIVERSAL_TIME_OFFSET ( 1, 0, .AHEAD. ) ;
#125 = PRODUCT_RELATED_PRODUCT_CATEGORY ( 'detail', '', ( #181 ) ) ;
#126 = AXIS2_PLACEMENT_3D ( 'NONE', #69, #31, #29 ) ;
#127 = PERSON ( 'UNSPECIFIED', 'UNSPECIFIED', 'UNSPECIFIED', ('UNSPECIFIED'), ('UNSPECIFIED'), ('UNSPECIFIED') ) ;
#128 = DATE_AND_TIME ( #59, #151 ) ;
#129 = DIRECTION ( 'NONE',  ( 0.0000000000000000000, 1.000000000000000000, 0.0000000000000000000 ) ) ;
#130 = DATE_AND_TIME ( #147, #77 ) ;
#131 = DIRECTION ( 'NONE',  ( 4.275831445896958607E-31, 1.000000000000000000, 1.224646799147353207E-16 ) ) ;
#132 = FACE_OUTER_BOUND ( 'NONE', #144, .T. ) ;
#133 = CONICAL_SURFACE ( 'NONE', #105, 4.000000000000002665, 0.7853981633974479459 ) ;
#134 = APPROVAL_STATUS ( 'not_yet_approved' ) ;
#135 = FACE_OUTER_BOUND ( 'NONE', #22, .T. ) ;
#136 = FACE_BOUND ( 'NONE', #174, .T. ) ;
#137 = EDGE_CURVE ( 'NONE', #98, #98, #142, .T. ) ;
#138 = APPLICATION_CONTEXT ( 'configuration controlled 3d designs of mechanical parts and assemblies' ) ;
#139 = LOCAL_TIME ( 14, 57, 20.00000000000000000, #1 ) ;
#140 = EDGE_LOOP ( 'NONE', ( #183 ) ) ;
#141 = CC_DESIGN_PERSON_AND_ORGANIZATION_ASSIGNMENT ( #82, #100, ( #187 ) ) ;
#142 = CIRCLE ( 'NONE', #76, 4.999999999999987566 ) ;
#143 = AXIS2_PLACEMENT_3D ( 'NONE', #176, #153, #60 ) ;
#144 = EDGE_LOOP ( 'NONE', ( #6 ) ) ;
#145 = COORDINATED_UNIVERSAL_TIME_OFFSET ( 1, 0, .AHEAD. ) ;
#146 = VERTEX_POINT ( 'NONE', #41 ) ;
#147 = CALENDAR_DATE ( 2021, 13, 10 ) ;
#148 = DIRECTION ( 'NONE',  ( -3.491481338843133355E-15, 1.224646799147353207E-16, -1.000000000000000000 ) ) ;
#149 = DIRECTION ( 'NONE',  ( -3.491481338843133355E-15, 1.224646799147353207E-16, -1.000000000000000000 ) ) ;
#150 = DIRECTION ( 'NONE',  ( 4.275831445896958607E-31, 1.000000000000000000, 1.224646799147353207E-16 ) ) ;
#151 = LOCAL_TIME ( 14, 57, 20.00000000000000000, #145 ) ;
#152 =( NAMED_UNIT ( * ) PLANE_ANGLE_UNIT ( ) SI_UNIT ( $, .RADIAN. ) );
#153 = DIRECTION ( 'NONE',  ( -3.491481338843133355E-15, 1.224646799147353207E-16, -1.000000000000000000 ) ) ;
#154 = AXIS2_PLACEMENT_3D ( 'NONE', #9, #86, #129 ) ;
#155 = PERSON_AND_ORGANIZATION_ROLE ( 'design_supplier' ) ;
#156 = SHAPE_DEFINITION_REPRESENTATION ( #78, #180 ) ;
#157 = VERTEX_POINT ( 'NONE', #56 ) ;
#158 = EDGE_LOOP ( 'NONE', ( #4 ) ) ;
#159 = APPROVAL ( #134, 'UNSPECIFIED' ) ;
#160 = ORIENTED_EDGE ( 'NONE', *, *, #123, .F. ) ;
#161 = APPROVAL_DATE_TIME ( #12, #23 ) ;
#162 = ORIENTED_EDGE ( 'NONE', *, *, #202, .T. ) ;
#163 = CARTESIAN_POINT ( 'NONE',  ( 2.269462870248037060E-13, 4.999999999999987566, 65.00000000000000000 ) ) ;
#164 = PERSON_AND_ORGANIZATION ( #127, #91 ) ;
#165 = DIRECTION ( 'NONE',  ( -4.275831445896958607E-31, -1.000000000000000000, -1.224646799147353207E-16 ) ) ;
#166 = PERSON_AND_ORGANIZATION ( #127, #91 ) ;
#167 = CC_DESIGN_DATE_AND_TIME_ASSIGNMENT ( #106, #35, ( #49 ) ) ;
#168 = PLANE ( 'NONE',  #27 ) ;
#169 = APPROVAL_DATE_TIME ( #51, #67 ) ;
#170 = CC_DESIGN_APPROVAL ( #159, ( #52 ) ) ;
#171 = DIRECTION ( 'NONE',  ( 1.000000000000000000, 0.0000000000000000000, 0.0000000000000000000 ) ) ;
#172 = PERSON_AND_ORGANIZATION_ROLE ( 'design_owner' ) ;
#173 = ADVANCED_FACE ( 'NONE', ( #117, #136 ), #133, .T. ) ;
#174 = EDGE_LOOP ( 'NONE', ( #162 ) ) ;
#175 = CARTESIAN_POINT ( 'NONE',  ( 6.353976404174115303E-15, 4.999999999999987566, 1.819851171331031692 ) ) ;
#176 = CARTESIAN_POINT ( 'NONE',  ( 2.269462870248037060E-13, -7.960204194457797252E-15, 65.00000000000000000 ) ) ;
#177 = CC_DESIGN_PERSON_AND_ORGANIZATION_ASSIGNMENT ( #30, #104, ( #52 ) ) ;
#178 = DIRECTION ( 'NONE',  ( 0.0000000000000000000, 0.0000000000000000000, 1.000000000000000000 ) ) ;
#179 = CARTESIAN_POINT ( 'NONE',  ( 4.085033166446465899E-13, -1.432836755002403127E-14, 117.0000000000000000 ) ) ;
#180 = ADVANCED_BREP_SHAPE_REPRESENTATION ( '960194', ( #93, #90, #188 ), #21 ) ;
#181 = PRODUCT ( '960194', '960194', '', ( #10 ) ) ;
#182 = SECURITY_CLASSIFICATION_LEVEL ( 'unclassified' ) ;
#183 = ORIENTED_EDGE ( 'NONE', *, *, #97, .T. ) ;
#184 = CARTESIAN_POINT ( 'NONE',  ( 4.119947979834897107E-13, -1.445083222993876641E-14, 118.0000000000000000 ) ) ;
#185 = LOCAL_TIME ( 14, 57, 20.00000000000000000, #70 ) ;
#186 = CALENDAR_DATE ( 2021, 13, 10 ) ;
#187 = PRODUCT_DEFINITION ( 'UNKNOWN', '', #52, #198 ) ;
#188 = AXIS2_PLACEMENT_3D ( 'NONE', #25, #178, #171 ) ;
#189 = APPLICATION_CONTEXT ( 'configuration controlled 3d designs of mechanical parts and assemblies' ) ;
#190 = CIRCLE ( 'NONE', #99, 4.000000000000002665 ) ;
#191 = ORIENTED_EDGE ( 'NONE', *, *, #123, .T. ) ;
#192 = COORDINATED_UNIVERSAL_TIME_OFFSET ( 1, 0, .AHEAD. ) ;
#193 = DIRECTION ( 'NONE',  ( 0.0000000000000000000, 1.000000000000000000, 0.0000000000000000000 ) ) ;
#194 = APPROVAL_DATE_TIME ( #130, #159 ) ;
#195 = FACE_OUTER_BOUND ( 'NONE', #140, .T. ) ;
#196 = CC_DESIGN_APPROVAL ( #67, ( #49 ) ) ;
#197 = CARTESIAN_POINT ( 'NONE',  ( 6.353976404174112936E-15, -2.228674911895109038E-16, 1.819851171331031026 ) ) ;
#198 = DESIGN_CONTEXT ( 'detailed design', #189, 'design' ) ;
#199 = DIRECTION ( 'NONE',  ( -4.622231866529377433E-31, -1.000000000000000000, -1.301042606982608526E-16 ) ) ;
#200 = DIRECTION ( 'NONE',  ( 0.0000000000000000000, 1.000000000000000000, 0.0000000000000000000 ) ) ;
#201 = AXIS2_PLACEMENT_3D ( 'NONE', #46, #44, #199 ) ;
#202 = EDGE_CURVE ( 'NONE', #157, #157, #190, .T. ) ;
#203 = ORIENTED_EDGE ( 'NONE', *, *, #20, .T. ) ;
ENDSEC;
END-ISO-10303-21;
