ISO-10303-21;
HEADER;
FILE_DESCRIPTION (( 'STEP AP203' ),
    '1' );
FILE_NAME ('960193.step',
    '2021-10-13T12:57:20',
    ( '' ),
    ( '' ),
    'SwSTEP 2.0',
    'SolidWorks 2019',
    '' );
FILE_SCHEMA (( 'CONFIG_CONTROL_DESIGN' ));
ENDSEC;

DATA;
#1 = DATE_AND_TIME ( #156, #81 ) ;
#2 = COORDINATED_UNIVERSAL_TIME_OFFSET ( 1, 0, .AHEAD. ) ;
#3 = LOCAL_TIME ( 14, 57, 20.00000000000000000, #101 ) ;
#4 = PRODUCT_DEFINITION ( 'UNKNOWN', '', #207, #139 ) ;
#5 = AXIS2_PLACEMENT_3D ( 'NONE', #32, #201, #14 ) ;
#6 = APPROVAL_DATE_TIME ( #161, #225 ) ;
#7 = EDGE_CURVE ( 'NONE', #56, #56, #143, .T. ) ;
#8 = COORDINATED_UNIVERSAL_TIME_OFFSET ( 1, 0, .AHEAD. ) ;
#9 =( GEOMETRIC_REPRESENTATION_CONTEXT ( 3 ) GLOBAL_UNCERTAINTY_ASSIGNED_CONTEXT ( ( #103 ) ) GLOBAL_UNIT_ASSIGNED_CONTEXT ( ( #135, #74, #208 ) ) REPRESENTATION_CONTEXT ( 'NONE', 'WORKASPACE' ) );
#10 = SECURITY_CLASSIFICATION_LEVEL ( 'unclassified' ) ;
#11 = FACE_OUTER_BOUND ( 'NONE', #31, .T. ) ;
#12 = CARTESIAN_POINT ( 'NONE',  ( 2.224073612843076389E-13, -2.756410344279155563E-14, 63.70000000000000995 ) ) ;
#13 = PLANE ( 'NONE',  #197 ) ;
#14 = DIRECTION ( 'NONE',  ( -4.716563129111586193E-31, -1.000000000000000000, -1.327594496921022512E-16 ) ) ;
#15 = PRODUCT_RELATED_PRODUCT_CATEGORY ( 'detail', '', ( #181 ) ) ;
#16 = DIRECTION ( 'NONE',  ( 0.0000000000000000000, 1.000000000000000000, 0.0000000000000000000 ) ) ;
#17 = CARTESIAN_POINT ( 'NONE',  ( 2.224073612843076389E-13, -4.900000000000039435, 63.70000000000000995 ) ) ;
#18 = AXIS2_PLACEMENT_3D ( 'NONE', #107, #49, #203 ) ;
#19 = PERSON_AND_ORGANIZATION ( #243, #46 ) ;
#20 = APPROVAL_STATUS ( 'not_yet_approved' ) ;
#21 = APPLICATION_PROTOCOL_DEFINITION ( 'international standard', 'config_control_design', 1994, #216 ) ;
#22 = ADVANCED_FACE ( 'NONE', ( #132 ), #13, .F. ) ;
#23 = PERSON_AND_ORGANIZATION_ROLE ( 'classification_officer' ) ;
#24 = ORIENTED_EDGE ( 'NONE', *, *, #77, .F. ) ;
#25 = DATE_AND_TIME ( #83, #195 ) ;
#26 = APPROVAL_PERSON_ORGANIZATION ( #209, #225, #172 ) ;
#27 = CIRCLE ( 'NONE', #5, 4.900000000000011902 ) ;
#28 = CARTESIAN_POINT ( 'NONE',  ( 4.119947979834897107E-13, 2.999519565323694963E-32, 118.0000000000000000 ) ) ;
#29 = DIRECTION ( 'NONE',  ( 0.0000000000000000000, 1.000000000000000000, 0.0000000000000000000 ) ) ;
#30 = DIRECTION ( 'NONE',  ( -3.491481338843133355E-15, 1.224646799147353207E-16, -1.000000000000000000 ) ) ;
#31 = EDGE_LOOP ( 'NONE', ( #24 ) ) ;
#32 = CARTESIAN_POINT ( 'NONE',  ( 6.226896876090660986E-15, -2.184101413657217112E-16, 1.783454147904419251 ) ) ;
#33 = DIRECTION ( 'NONE',  ( 0.0000000000000000000, 1.000000000000000000, 0.0000000000000000000 ) ) ;
#34 = CARTESIAN_POINT ( 'NONE',  ( 2.581457798368976366E-13, 4.999999999999967137, 73.93588989435400549 ) ) ;
#35 = CARTESIAN_POINT ( 'NONE',  ( 2.566238784049702827E-13, 4.899999999999992362, 73.50000000000000000 ) ) ;
#36 = CIRCLE ( 'NONE', #178, 5.000000000000002665 ) ;
#37 = LOCAL_TIME ( 14, 57, 20.00000000000000000, #73 ) ;
#38 = DIRECTION ( 'NONE',  ( -4.622231866529377433E-31, -1.000000000000000000, -1.301042606982608526E-16 ) ) ;
#39 = VERTEX_POINT ( 'NONE', #117 ) ;
#40 = CC_DESIGN_SECURITY_CLASSIFICATION ( #222, ( #207 ) ) ;
#41 = VERTEX_POINT ( 'NONE', #115 ) ;
#42 = CIRCLE ( 'NONE', #182, 4.900000000000011902 ) ;
#43 = APPROVAL_ROLE ( '' ) ;
#44 = PERSON_AND_ORGANIZATION_ROLE ( 'design_supplier' ) ;
#45 = ADVANCED_FACE ( 'NONE', ( #109, #217 ), #166, .T. ) ;
#46 = ORGANIZATION ( 'UNSPECIFIED', 'UNSPECIFIED', '' ) ;
#47 = FACE_BOUND ( 'NONE', #96, .T. ) ;
#48 = DIRECTION ( 'NONE',  ( -4.275831445896958607E-31, -1.000000000000000000, -1.224646799147353207E-16 ) ) ;
#49 = DIRECTION ( 'NONE',  ( -3.491481338843133355E-15, 1.224646799147353207E-16, -1.000000000000000000 ) ) ;
#50 = EDGE_CURVE ( 'NONE', #206, #206, #42, .T. ) ;
#51 = CLOSED_SHELL ( 'NONE', ( #126, #118, #138, #45, #160, #22 ) ) ;
#52 = DIRECTION ( 'NONE',  ( -3.491481338843133355E-15, 4.327174794786742882E-16, -1.000000000000000000 ) ) ;
#53 = FACE_OUTER_BOUND ( 'NONE', #82, .T. ) ;
#54 = APPROVAL_STATUS ( 'not_yet_approved' ) ;
#55 = MANIFOLD_SOLID_BREP ( 'Corps-Déplacer/Copier1[1]', #51 ) ;
#56 = VERTEX_POINT ( 'NONE', #35 ) ;
#57 = DATE_AND_TIME ( #242, #218 ) ;
#58 = CARTESIAN_POINT ( 'NONE',  ( 4.085033166446465899E-13, 4.999999999999987566, 117.0000000000000000 ) ) ;
#59 = CC_DESIGN_PERSON_AND_ORGANIZATION_ASSIGNMENT ( #205, #99, ( #4 ) ) ;
#60 = DIRECTION ( 'NONE',  ( 0.0000000000000000000, 0.0000000000000000000, 1.000000000000000000 ) ) ;
#61 = TOROIDAL_SURFACE ( 'NONE', #192, 5.900000000000024336, 1.000000000000001998 ) ;
#62 = CALENDAR_DATE ( 2021, 13, 10 ) ;
#63 = EDGE_LOOP ( 'NONE', ( #157 ) ) ;
#64 = ORIENTED_EDGE ( 'NONE', *, *, #125, .F. ) ;
#65 = PRODUCT_DEFINITION_SHAPE ( 'NONE', 'NONE',  #4 ) ;
#66 = PLANE ( 'NONE',  #180 ) ;
#67 = CC_DESIGN_APPROVAL ( #225, ( #207 ) ) ;
#68 = CARTESIAN_POINT ( 'NONE',  ( 2.581457798368976366E-13, -3.228100148198602860E-14, 73.93588989435400549 ) ) ;
#69 = DIRECTION ( 'NONE',  ( -3.491481338843133355E-15, 4.327174794786742882E-16, -1.000000000000000000 ) ) ;
#70 = DIRECTION ( 'NONE',  ( 1.510825004591027855E-30, 1.000000000000000000, 4.327174794786742882E-16 ) ) ;
#71 = CIRCLE ( 'NONE', #211, 4.900000000000011902 ) ;
#72 = FACE_OUTER_BOUND ( 'NONE', #190, .T. ) ;
#73 = COORDINATED_UNIVERSAL_TIME_OFFSET ( 1, 0, .AHEAD. ) ;
#74 =( NAMED_UNIT ( * ) PLANE_ANGLE_UNIT ( ) SI_UNIT ( $, .RADIAN. ) );
#75 = DIRECTION ( 'NONE',  ( 3.491481338843133355E-15, -1.224646799147353207E-16, 1.000000000000000000 ) ) ;
#76 = APPROVAL ( #105, 'UNSPECIFIED' ) ;
#77 = EDGE_CURVE ( 'NONE', #230, #230, #36, .T. ) ;
#78 = DIRECTION ( 'NONE',  ( 1.000000000000000000, 0.0000000000000000000, 0.0000000000000000000 ) ) ;
#79 = CARTESIAN_POINT ( 'NONE',  ( 0.0000000000000000000, 0.0000000000000000000, 0.0000000000000000000 ) ) ;
#80 = PERSON_AND_ORGANIZATION ( #243, #46 ) ;
#81 = LOCAL_TIME ( 14, 57, 20.00000000000000000, #2 ) ;
#82 = EDGE_LOOP ( 'NONE', ( #86 ) ) ;
#83 = CALENDAR_DATE ( 2021, 13, 10 ) ;
#84 = ORIENTED_EDGE ( 'NONE', *, *, #114, .T. ) ;
#85 = EDGE_LOOP ( 'NONE', ( #241 ) ) ;
#86 = ORIENTED_EDGE ( 'NONE', *, *, #125, .T. ) ;
#87 = CC_DESIGN_APPROVAL ( #187, ( #4 ) ) ;
#88 = PERSON_AND_ORGANIZATION ( #243, #46 ) ;
#89 = ORIENTED_EDGE ( 'NONE', *, *, #7, .T. ) ;
#90 = DIRECTION ( 'NONE',  ( -3.491481338843133355E-15, 1.224646799147353207E-16, -1.000000000000000000 ) ) ;
#91 = DIRECTION ( 'NONE',  ( -3.491481338843133355E-15, 1.224646799147353207E-16, -1.000000000000000000 ) ) ;
#92 = CLOSED_SHELL ( 'NONE', ( #228, #227, #173 ) ) ;
#93 = DIRECTION ( 'NONE',  ( 3.491481338843133355E-15, -1.224646799147353207E-16, 1.000000000000000000 ) ) ;
#94 = CYLINDRICAL_SURFACE ( 'NONE', #232, 4.900000000000011902 ) ;
#95 = DIRECTION ( 'NONE',  ( 3.491481338843133355E-15, -4.327174794786742882E-16, 1.000000000000000000 ) ) ;
#96 = EDGE_LOOP ( 'NONE', ( #84 ) ) ;
#97 = ORIENTED_EDGE ( 'NONE', *, *, #77, .T. ) ;
#98 = APPLICATION_PROTOCOL_DEFINITION ( 'international standard', 'config_control_design', 1994, #122 ) ;
#99 = PERSON_AND_ORGANIZATION_ROLE ( 'creator' ) ;
#100 = PERSON_AND_ORGANIZATION ( #243, #46 ) ;
#101 = COORDINATED_UNIVERSAL_TIME_OFFSET ( 1, 0, .AHEAD. ) ;
#102 = ORIENTED_EDGE ( 'NONE', *, *, #7, .F. ) ;
#103 = UNCERTAINTY_MEASURE_WITH_UNIT (LENGTH_MEASURE( 1.000000000000000082E-05 ), #135, 'distance_accuracy_value', 'NONE');
#104 = CC_DESIGN_DATE_AND_TIME_ASSIGNMENT ( #25, #123, ( #222 ) ) ;
#105 = APPROVAL_STATUS ( 'not_yet_approved' ) ;
#106 = CONICAL_SURFACE ( 'NONE', #240, 4.000000000000002665, 0.7853981633974479459 ) ;
#107 = CARTESIAN_POINT ( 'NONE',  ( 0.0000000000000000000, 0.0000000000000000000, 0.0000000000000000000 ) ) ;
#108 = ORIENTED_EDGE ( 'NONE', *, *, #174, .F. ) ;
#109 = FACE_OUTER_BOUND ( 'NONE', #224, .T. ) ;
#110 = FACE_OUTER_BOUND ( 'NONE', #238, .T. ) ;
#111 = CIRCLE ( 'NONE', #153, 4.000000000000002665 ) ;
#112 = CARTESIAN_POINT ( 'NONE',  ( 0.0000000000000000000, 0.0000000000000000000, 0.0000000000000000000 ) ) ;
#113 = CARTESIAN_POINT ( 'NONE',  ( 2.224073612843076389E-13, 3.749399456654629240E-32, 63.70000000000000995 ) ) ;
#114 = EDGE_CURVE ( 'NONE', #39, #39, #111, .T. ) ;
#115 = CARTESIAN_POINT ( 'NONE',  ( 6.226896876090658619E-15, -4.900000000000011902, 1.783454147904418585 ) ) ;
#116 = AXIS2_PLACEMENT_3D ( 'NONE', #159, #75, #38 ) ;
#117 = CARTESIAN_POINT ( 'NONE',  ( 4.119947979834897107E-13, 3.999999999999988010, 118.0000000000000000 ) ) ;
#118 = ADVANCED_FACE ( 'NONE', ( #11, #47 ), #106, .T. ) ;
#119 = APPROVAL_PERSON_ORGANIZATION ( #176, #76, #43 ) ;
#120 = AXIS2_PLACEMENT_3D ( 'NONE', #149, #164, #33 ) ;
#121 = CONICAL_SURFACE ( 'NONE', #116, 4.999999999999987566, 1.221730476396026610 ) ;
#122 = APPLICATION_CONTEXT ( 'configuration controlled 3d designs of mechanical parts and assemblies' ) ;
#123 = DATE_TIME_ROLE ( 'classification_date' ) ;
#124 = ORIENTED_EDGE ( 'NONE', *, *, #174, .T. ) ;
#125 = EDGE_CURVE ( 'NONE', #193, #193, #170, .T. ) ;
#126 = ADVANCED_FACE ( 'NONE', ( #53, #148 ), #239, .T. ) ;
#127 = DIRECTION ( 'NONE',  ( 3.491481338843133355E-15, -1.224646799147353207E-16, 1.000000000000000000 ) ) ;
#128 = FACE_OUTER_BOUND ( 'NONE', #233, .T. ) ;
#129 = FACE_OUTER_BOUND ( 'NONE', #198, .T. ) ;
#130 = DIRECTION ( 'NONE',  ( -3.491481338843133355E-15, 4.327174794786742882E-16, -1.000000000000000000 ) ) ;
#131 = CC_DESIGN_DATE_AND_TIME_ASSIGNMENT ( #57, #136, ( #4 ) ) ;
#132 = FACE_OUTER_BOUND ( 'NONE', #85, .T. ) ;
#133 = CALENDAR_DATE ( 2021, 13, 10 ) ;
#134 = AXIS2_PLACEMENT_3D ( 'NONE', #79, #60, #78 ) ;
#135 =( LENGTH_UNIT ( ) NAMED_UNIT ( * ) SI_UNIT ( .MILLI., .METRE. ) );
#136 = DATE_TIME_ROLE ( 'creation_date' ) ;
#137 = PERSON_AND_ORGANIZATION_ROLE ( 'design_owner' ) ;
#138 = ADVANCED_FACE ( 'NONE', ( #72 ), #236, .F. ) ;
#139 = DESIGN_CONTEXT ( 'detailed design', #122, 'design' ) ;
#140 = AXIS2_PLACEMENT_3D ( 'NONE', #68, #95, #168 ) ;
#141 = CC_DESIGN_PERSON_AND_ORGANIZATION_ASSIGNMENT ( #88, #23, ( #222 ) ) ;
#142 = SHAPE_DEFINITION_REPRESENTATION ( #65, #169 ) ;
#143 = CIRCLE ( 'NONE', #120, 4.900000000000024336 ) ;
#144 = MANIFOLD_SOLID_BREP ( 'Corps-Déplacer/Copier1[2]', #92 ) ;
#145 = EDGE_LOOP ( 'NONE', ( #102 ) ) ;
#146 = CARTESIAN_POINT ( 'NONE',  ( 2.224073612843076389E-13, 3.749399456654629240E-32, 63.70000000000000995 ) ) ;
#147 = APPROVAL_PERSON_ORGANIZATION ( #171, #187, #194 ) ;
#148 = FACE_OUTER_BOUND ( 'NONE', #184, .T. ) ;
#149 = CARTESIAN_POINT ( 'NONE',  ( 2.566238784049702827E-13, -3.180473474168255545E-14, 73.50000000000000000 ) ) ;
#150 = CC_DESIGN_APPROVAL ( #76, ( #222 ) ) ;
#151 = CARTESIAN_POINT ( 'NONE',  ( 0.0000000000000000000, 0.0000000000000000000, 0.0000000000000000000 ) ) ;
#152 = AXIS2_PLACEMENT_3D ( 'NONE', #112, #69, #167 ) ;
#153 = AXIS2_PLACEMENT_3D ( 'NONE', #237, #91, #154 ) ;
#154 = DIRECTION ( 'NONE',  ( 0.0000000000000000000, 1.000000000000000000, 0.0000000000000000000 ) ) ;
#155 = EDGE_LOOP ( 'NONE', ( #64 ) ) ;
#156 = CALENDAR_DATE ( 2021, 13, 10 ) ;
#157 = ORIENTED_EDGE ( 'NONE', *, *, #226, .T. ) ;
#158 = COORDINATED_UNIVERSAL_TIME_OFFSET ( 1, 0, .AHEAD. ) ;
#159 = CARTESIAN_POINT ( 'NONE',  ( 6.353976404174112936E-15, -2.228674911895109038E-16, 1.819851171331031026 ) ) ;
#160 = ADVANCED_FACE ( 'NONE', ( #163, #221 ), #61, .F. ) ;
#161 = DATE_AND_TIME ( #133, #37 ) ;
#162 = ORIENTED_EDGE ( 'NONE', *, *, #226, .F. ) ;
#163 = FACE_OUTER_BOUND ( 'NONE', #145, .T. ) ;
#164 = DIRECTION ( 'NONE',  ( -3.491481338843133355E-15, 4.327174794786742882E-16, -1.000000000000000000 ) ) ;
#165 = AXIS2_PLACEMENT_3D ( 'NONE', #28, #90, #183 ) ;
#166 = CYLINDRICAL_SURFACE ( 'NONE', #152, 4.900000000000011902 ) ;
#167 = DIRECTION ( 'NONE',  ( 1.510825004591028030E-30, 1.000000000000000000, 4.327174794786742389E-16 ) ) ;
#168 = DIRECTION ( 'NONE',  ( 0.0000000000000000000, 1.000000000000000000, 0.0000000000000000000 ) ) ;
#169 = ADVANCED_BREP_SHAPE_REPRESENTATION ( '960193', ( #55, #144, #134 ), #9 ) ;
#170 = CIRCLE ( 'NONE', #140, 4.999999999999999112 ) ;
#171 = PERSON_AND_ORGANIZATION ( #243, #46 ) ;
#172 = APPROVAL_ROLE ( '' ) ;
#173 = ADVANCED_FACE ( 'NONE', ( #129 ), #66, .T. ) ;
#174 = EDGE_CURVE ( 'NONE', #231, #231, #71, .T. ) ;
#175 = MECHANICAL_CONTEXT ( 'NONE', #216, 'mechanical' ) ;
#176 = PERSON_AND_ORGANIZATION ( #243, #46 ) ;
#177 = ORIENTED_EDGE ( 'NONE', *, *, #114, .F. ) ;
#178 = AXIS2_PLACEMENT_3D ( 'NONE', #189, #202, #29 ) ;
#179 = DATE_AND_TIME ( #62, #3 ) ;
#180 = AXIS2_PLACEMENT_3D ( 'NONE', #146, #127, #48 ) ;
#181 = PRODUCT ( '960193', '960193', '', ( #175 ) ) ;
#182 = AXIS2_PLACEMENT_3D ( 'NONE', #12, #234, #186 ) ;
#183 = DIRECTION ( 'NONE',  ( 4.275831445896958607E-31, 1.000000000000000000, 1.224646799147353207E-16 ) ) ;
#184 = EDGE_LOOP ( 'NONE', ( #97 ) ) ;
#185 = DIRECTION ( 'NONE',  ( -4.275831445896958607E-31, -1.000000000000000000, -1.224646799147353207E-16 ) ) ;
#186 = DIRECTION ( 'NONE',  ( 0.0000000000000000000, -1.000000000000000000, 0.0000000000000000000 ) ) ;
#187 = APPROVAL ( #54, 'UNSPECIFIED' ) ;
#188 = CARTESIAN_POINT ( 'NONE',  ( 2.224073612843076389E-13, -2.756410344279155563E-14, 63.70000000000000995 ) ) ;
#189 = CARTESIAN_POINT ( 'NONE',  ( 4.085033166446465899E-13, -1.432836755002403127E-14, 117.0000000000000000 ) ) ;
#190 = EDGE_LOOP ( 'NONE', ( #177 ) ) ;
#191 = FACE_OUTER_BOUND ( 'NONE', #63, .T. ) ;
#192 = AXIS2_PLACEMENT_3D ( 'NONE', #219, #52, #70 ) ;
#193 = VERTEX_POINT ( 'NONE', #34 ) ;
#194 = APPROVAL_ROLE ( '' ) ;
#195 = LOCAL_TIME ( 14, 57, 20.00000000000000000, #8 ) ;
#196 = CC_DESIGN_PERSON_AND_ORGANIZATION_ASSIGNMENT ( #80, #44, ( #207 ) ) ;
#197 = AXIS2_PLACEMENT_3D ( 'NONE', #113, #93, #185 ) ;
#198 = EDGE_LOOP ( 'NONE', ( #108 ) ) ;
#199 = CC_DESIGN_PERSON_AND_ORGANIZATION_ASSIGNMENT ( #19, #137, ( #181 ) ) ;
#200 = ORIENTED_EDGE ( 'NONE', *, *, #50, .F. ) ;
#201 = DIRECTION ( 'NONE',  ( -3.491481338843133355E-15, 1.224646799147353207E-16, -1.000000000000000000 ) ) ;
#202 = DIRECTION ( 'NONE',  ( -3.491481338843133355E-15, 1.224646799147353207E-16, -1.000000000000000000 ) ) ;
#203 = DIRECTION ( 'NONE',  ( 4.275831445896958607E-31, 1.000000000000000000, 1.224646799147353207E-16 ) ) ;
#204 = DIRECTION ( 'NONE',  ( 1.510825004591028030E-30, 1.000000000000000000, 4.327174794786742389E-16 ) ) ;
#205 = PERSON_AND_ORGANIZATION ( #243, #46 ) ;
#206 = VERTEX_POINT ( 'NONE', #17 ) ;
#207 = PRODUCT_DEFINITION_FORMATION_WITH_SPECIFIED_SOURCE ( 'ANY', '', #181, .NOT_KNOWN. ) ;
#208 =( NAMED_UNIT ( * ) SI_UNIT ( $, .STERADIAN. ) SOLID_ANGLE_UNIT ( ) );
#209 = PERSON_AND_ORGANIZATION ( #243, #46 ) ;
#210 = CARTESIAN_POINT ( 'NONE',  ( 2.224073612843076389E-13, -4.900000000000039435, 63.70000000000000995 ) ) ;
#211 = AXIS2_PLACEMENT_3D ( 'NONE', #188, #30, #220 ) ;
#212 = APPROVAL_DATE_TIME ( #179, #76 ) ;
#213 = PERSON_AND_ORGANIZATION_ROLE ( 'creator' ) ;
#214 = EDGE_LOOP ( 'NONE', ( #200 ) ) ;
#215 = CC_DESIGN_PERSON_AND_ORGANIZATION_ASSIGNMENT ( #100, #213, ( #207 ) ) ;
#216 = APPLICATION_CONTEXT ( 'configuration controlled 3d designs of mechanical parts and assemblies' ) ;
#217 = FACE_OUTER_BOUND ( 'NONE', #214, .T. ) ;
#218 = LOCAL_TIME ( 14, 57, 20.00000000000000000, #158 ) ;
#219 = CARTESIAN_POINT ( 'NONE',  ( 2.566238784049702827E-13, -3.209238430557093125E-14, 73.50000000000000000 ) ) ;
#220 = DIRECTION ( 'NONE',  ( 0.0000000000000000000, -1.000000000000000000, 0.0000000000000000000 ) ) ;
#221 = FACE_OUTER_BOUND ( 'NONE', #155, .T. ) ;
#222 = SECURITY_CLASSIFICATION ( '', '', #10 ) ;
#223 = CARTESIAN_POINT ( 'NONE',  ( 4.119947979834897107E-13, -1.445083222993876641E-14, 118.0000000000000000 ) ) ;
#224 = EDGE_LOOP ( 'NONE', ( #89 ) ) ;
#225 = APPROVAL ( #20, 'UNSPECIFIED' ) ;
#226 = EDGE_CURVE ( 'NONE', #41, #41, #27, .T. ) ;
#227 = ADVANCED_FACE ( 'NONE', ( #128, #110 ), #94, .T. ) ;
#228 = ADVANCED_FACE ( 'NONE', ( #191 ), #121, .T. ) ;
#229 = APPROVAL_DATE_TIME ( #1, #187 ) ;
#230 = VERTEX_POINT ( 'NONE', #58 ) ;
#231 = VERTEX_POINT ( 'NONE', #210 ) ;
#232 = AXIS2_PLACEMENT_3D ( 'NONE', #151, #130, #204 ) ;
#233 = EDGE_LOOP ( 'NONE', ( #124 ) ) ;
#234 = DIRECTION ( 'NONE',  ( -3.491481338843133355E-15, 1.224646799147353207E-16, -1.000000000000000000 ) ) ;
#235 = DIRECTION ( 'NONE',  ( -3.491481338843133355E-15, 1.224646799147353207E-16, -1.000000000000000000 ) ) ;
#236 = PLANE ( 'NONE',  #165 ) ;
#237 = CARTESIAN_POINT ( 'NONE',  ( 4.119947979834897107E-13, -1.445083222993876641E-14, 118.0000000000000000 ) ) ;
#238 = EDGE_LOOP ( 'NONE', ( #162 ) ) ;
#239 = CYLINDRICAL_SURFACE ( 'NONE', #18, 4.999999999999999112 ) ;
#240 = AXIS2_PLACEMENT_3D ( 'NONE', #223, #235, #16 ) ;
#241 = ORIENTED_EDGE ( 'NONE', *, *, #50, .T. ) ;
#242 = CALENDAR_DATE ( 2021, 13, 10 ) ;
#243 = PERSON ( 'UNSPECIFIED', 'UNSPECIFIED', 'UNSPECIFIED', ('UNSPECIFIED'), ('UNSPECIFIED'), ('UNSPECIFIED') ) ;
ENDSEC;
END-ISO-10303-21;
