ISO-10303-21;
HEADER;
FILE_DESCRIPTION (( 'STEP AP203' ),
    '1' );
FILE_NAME ('960192.step',
    '2021-10-13T12:57:19',
    ( '' ),
    ( '' ),
    'SwSTEP 2.0',
    'SolidWorks 2019',
    '' );
FILE_SCHEMA (( 'CONFIG_CONTROL_DESIGN' ));
ENDSEC;

DATA;
#1 = CC_DESIGN_PERSON_AND_ORGANIZATION_ASSIGNMENT ( #55, #164, ( #110 ) ) ;
#2 = CIRCLE ( 'NONE', #222, 4.999999999999999112 ) ;
#3 = CC_DESIGN_DATE_AND_TIME_ASSIGNMENT ( #70, #30, ( #187 ) ) ;
#4 = AXIS2_PLACEMENT_3D ( 'NONE', #140, #159, #56 ) ;
#5 = ADVANCED_FACE ( 'NONE', ( #197, #38 ), #41, .F. ) ;
#6 = APPROVAL_PERSON_ORGANIZATION ( #104, #139, #90 ) ;
#7 = PLANE ( 'NONE',  #243 ) ;
#8 = ORIENTED_EDGE ( 'NONE', *, *, #182, .F. ) ;
#9 = CARTESIAN_POINT ( 'NONE',  ( 4.085033166446465899E-13, 4.999999999999987566, 117.0000000000000000 ) ) ;
#10 = CARTESIAN_POINT ( 'NONE',  ( 2.513900148327853490E-13, -5.000000000000030198, 72.00096189432329652 ) ) ;
#11 = APPROVAL_DATE_TIME ( #40, #139 ) ;
#12 = DIRECTION ( 'NONE',  ( -3.491481338843133355E-15, 4.327174794786742882E-16, -1.000000000000000000 ) ) ;
#13 = CIRCLE ( 'NONE', #186, 4.883974596215584718 ) ;
#14 = PERSON_AND_ORGANIZATION_ROLE ( 'creator' ) ;
#15 = DIRECTION ( 'NONE',  ( 4.275831445896958607E-31, 1.000000000000000000, 1.224646799147353207E-16 ) ) ;
#16 = DATE_TIME_ROLE ( 'classification_date' ) ;
#17 = CYLINDRICAL_SURFACE ( 'NONE', #39, 4.999999999999999112 ) ;
#18 = CYLINDRICAL_SURFACE ( 'NONE', #252, 4.750000000000011546 ) ;
#19 = CARTESIAN_POINT ( 'NONE',  ( 0.0000000000000000000, 0.0000000000000000000, 0.0000000000000000000 ) ) ;
#20 = CARTESIAN_POINT ( 'NONE',  ( 2.513900148327853490E-13, -3.115607475095165474E-14, 72.00096189432329652 ) ) ;
#21 = EDGE_LOOP ( 'NONE', ( #201 ) ) ;
#22 = DATE_AND_TIME ( #175, #259 ) ;
#23 = CC_DESIGN_DATE_AND_TIME_ASSIGNMENT ( #72, #16, ( #261 ) ) ;
#24 = CIRCLE ( 'NONE', #60, 4.750000000000023093 ) ;
#25 = CC_DESIGN_PERSON_AND_ORGANIZATION_ASSIGNMENT ( #209, #99, ( #187 ) ) ;
#26 = CARTESIAN_POINT ( 'NONE',  ( 2.544137263690629796E-13, -3.153081908084177457E-14, 72.86698729810778730 ) ) ;
#27 = VERTEX_POINT ( 'NONE', #10 ) ;
#28 = CARTESIAN_POINT ( 'NONE',  ( 0.0000000000000000000, 0.0000000000000000000, 0.0000000000000000000 ) ) ;
#29 = ORIENTED_EDGE ( 'NONE', *, *, #79, .T. ) ;
#30 = DATE_TIME_ROLE ( 'creation_date' ) ;
#31 = FACE_OUTER_BOUND ( 'NONE', #91, .T. ) ;
#32 = APPROVAL_PERSON_ORGANIZATION ( #221, #180, #138 ) ;
#33 = DIRECTION ( 'NONE',  ( -3.491481338843133355E-15, 4.327174794786742882E-16, -1.000000000000000000 ) ) ;
#34 = CC_DESIGN_PERSON_AND_ORGANIZATION_ASSIGNMENT ( #255, #14, ( #110 ) ) ;
#35 = DESIGN_CONTEXT ( 'detailed design', #168, 'design' ) ;
#36 = ADVANCED_FACE ( 'NONE', ( #218, #135 ), #18, .T. ) ;
#37 = EDGE_LOOP ( 'NONE', ( #95 ) ) ;
#38 = FACE_OUTER_BOUND ( 'NONE', #69, .T. ) ;
#39 = AXIS2_PLACEMENT_3D ( 'NONE', #28, #254, #51 ) ;
#40 = DATE_AND_TIME ( #195, #42 ) ;
#41 = TOROIDAL_SURFACE ( 'NONE', #4, 5.750000000000023093, 1.000000000000000000 ) ;
#42 = LOCAL_TIME ( 14, 57, 19.00000000000000000, #98 ) ;
#43 = EDGE_LOOP ( 'NONE', ( #153 ) ) ;
#44 = PLANE ( 'NONE',  #165 ) ;
#45 = CARTESIAN_POINT ( 'NONE',  ( 2.506883601289369875E-13, 4.883974596215553632, 71.79999999999999716 ) ) ;
#46 = ORGANIZATION ( 'UNSPECIFIED', 'UNSPECIFIED', '' ) ;
#47 = EDGE_LOOP ( 'NONE', ( #233 ) ) ;
#48 = VERTEX_POINT ( 'NONE', #131 ) ;
#49 = ORIENTED_EDGE ( 'NONE', *, *, #101, .T. ) ;
#50 = COORDINATED_UNIVERSAL_TIME_OFFSET ( 1, 0, .AHEAD. ) ;
#51 = DIRECTION ( 'NONE',  ( 4.275831445896958607E-31, 1.000000000000000000, 1.224646799147353207E-16 ) ) ;
#52 = EDGE_CURVE ( 'NONE', #84, #84, #129, .T. ) ;
#53 = DIRECTION ( 'NONE',  ( 0.0000000000000000000, 1.000000000000000000, 0.0000000000000000000 ) ) ;
#54 = ORIENTED_EDGE ( 'NONE', *, *, #171, .F. ) ;
#55 = PERSON_AND_ORGANIZATION ( #147, #46 ) ;
#56 = DIRECTION ( 'NONE',  ( 1.510825004591027855E-30, 1.000000000000000000, 4.327174794786742882E-16 ) ) ;
#57 = DIRECTION ( 'NONE',  ( -3.491481338843133355E-15, 4.327174794786742882E-16, -1.000000000000000000 ) ) ;
#58 = DIRECTION ( 'NONE',  ( 3.491481338843133355E-15, -4.327174794786742882E-16, 1.000000000000000000 ) ) ;
#59 = CC_DESIGN_PERSON_AND_ORGANIZATION_ASSIGNMENT ( #151, #160, ( #64 ) ) ;
#60 = AXIS2_PLACEMENT_3D ( 'NONE', #94, #12, #93 ) ;
#61 = AXIS2_PLACEMENT_3D ( 'NONE', #26, #225, #188 ) ;
#62 = AXIS2_PLACEMENT_3D ( 'NONE', #262, #163, #241 ) ;
#63 = CIRCLE ( 'NONE', #234, 4.750000000000011546 ) ;
#64 = PRODUCT ( '960192', '960192', '', ( #198 ) ) ;
#65 = DIRECTION ( 'NONE',  ( 0.0000000000000000000, -1.000000000000000000, 0.0000000000000000000 ) ) ;
#66 = VERTEX_POINT ( 'NONE', #247 ) ;
#67 = DIRECTION ( 'NONE',  ( 1.510825004591027855E-30, 1.000000000000000000, 4.327174794786742389E-16 ) ) ;
#68 = CIRCLE ( 'NONE', #226, 4.000000000000002665 ) ;
#69 = EDGE_LOOP ( 'NONE', ( #29 ) ) ;
#70 = DATE_AND_TIME ( #185, #193 ) ;
#71 = CARTESIAN_POINT ( 'NONE',  ( 4.119947979834897107E-13, -1.445083222993876641E-14, 118.0000000000000000 ) ) ;
#72 = DATE_AND_TIME ( #81, #144 ) ;
#73 = FACE_BOUND ( 'NONE', #204, .T. ) ;
#74 = UNCERTAINTY_MEASURE_WITH_UNIT (LENGTH_MEASURE( 1.000000000000000082E-05 ), #172, 'distance_accuracy_value', 'NONE');
#75 = COORDINATED_UNIVERSAL_TIME_OFFSET ( 1, 0, .AHEAD. ) ;
#76 = CARTESIAN_POINT ( 'NONE',  ( 2.506883601289369875E-13, -3.106911502656881200E-14, 71.79999999999999716 ) ) ;
#77 = ORIENTED_EDGE ( 'NONE', *, *, #211, .F. ) ;
#78 = CIRCLE ( 'NONE', #238, 5.000000000000002665 ) ;
#79 = EDGE_CURVE ( 'NONE', #250, #250, #13, .T. ) ;
#80 = DIRECTION ( 'NONE',  ( 0.0000000000000000000, -1.000000000000000000, 0.0000000000000000000 ) ) ;
#81 = CALENDAR_DATE ( 2021, 13, 10 ) ;
#82 = EDGE_CURVE ( 'NONE', #128, #128, #63, .T. ) ;
#83 = CIRCLE ( 'NONE', #181, 4.750000000000011546 ) ;
#84 = VERTEX_POINT ( 'NONE', #169 ) ;
#85 = ORIENTED_EDGE ( 'NONE', *, *, #82, .F. ) ;
#86 = ADVANCED_BREP_SHAPE_REPRESENTATION ( '960192', ( #230, #223, #62 ), #162 ) ;
#87 = FACE_OUTER_BOUND ( 'NONE', #106, .T. ) ;
#88 = APPLICATION_PROTOCOL_DEFINITION ( 'international standard', 'config_control_design', 1994, #157 ) ;
#89 = EDGE_LOOP ( 'NONE', ( #8 ) ) ;
#90 = APPROVAL_ROLE ( '' ) ;
#91 = EDGE_LOOP ( 'NONE', ( #85 ) ) ;
#92 = APPROVAL_STATUS ( 'not_yet_approved' ) ;
#93 = DIRECTION ( 'NONE',  ( 0.0000000000000000000, 1.000000000000000000, 0.0000000000000000000 ) ) ;
#94 = CARTESIAN_POINT ( 'NONE',  ( 2.489426194595154272E-13, -3.085275628682947643E-14, 71.29999999999999716 ) ) ;
#95 = ORIENTED_EDGE ( 'NONE', *, *, #119, .F. ) ;
#96 = CARTESIAN_POINT ( 'NONE',  ( 6.036277583965435728E-15, -2.117241166300363693E-16, 1.728858612764487823 ) ) ;
#97 = CC_DESIGN_APPROVAL ( #139, ( #187 ) ) ;
#98 = COORDINATED_UNIVERSAL_TIME_OFFSET ( 1, 0, .AHEAD. ) ;
#99 = PERSON_AND_ORGANIZATION_ROLE ( 'creator' ) ;
#100 = CC_DESIGN_APPROVAL ( #180, ( #261 ) ) ;
#101 = EDGE_CURVE ( 'NONE', #27, #27, #2, .T. ) ;
#102 = AXIS2_PLACEMENT_3D ( 'NONE', #96, #258, #199 ) ;
#103 = FACE_BOUND ( 'NONE', #114, .T. ) ;
#104 = PERSON_AND_ORGANIZATION ( #147, #46 ) ;
#105 = FACE_OUTER_BOUND ( 'NONE', #47, .T. ) ;
#106 = EDGE_LOOP ( 'NONE', ( #189 ) ) ;
#107 = COORDINATED_UNIVERSAL_TIME_OFFSET ( 1, 0, .AHEAD. ) ;
#108 = DIRECTION ( 'NONE',  ( -3.491481338843133355E-15, 1.224646799147353207E-16, -1.000000000000000000 ) ) ;
#109 = DIRECTION ( 'NONE',  ( -4.275831445896958607E-31, -1.000000000000000000, -1.224646799147353207E-16 ) ) ;
#110 = PRODUCT_DEFINITION_FORMATION_WITH_SPECIFIED_SOURCE ( 'ANY', '', #64, .NOT_KNOWN. ) ;
#111 = APPROVAL_STATUS ( 'not_yet_approved' ) ;
#112 = DIRECTION ( 'NONE',  ( -3.491481338843133355E-15, 1.224646799147353207E-16, -1.000000000000000000 ) ) ;
#113 = ORIENTED_EDGE ( 'NONE', *, *, #211, .T. ) ;
#114 = EDGE_LOOP ( 'NONE', ( #217 ) ) ;
#115 = ORIENTED_EDGE ( 'NONE', *, *, #52, .T. ) ;
#116 = AXIS2_PLACEMENT_3D ( 'NONE', #148, #224, #213 ) ;
#117 = CALENDAR_DATE ( 2021, 13, 10 ) ;
#118 = PERSON_AND_ORGANIZATION ( #147, #46 ) ;
#119 = EDGE_CURVE ( 'NONE', #48, #48, #83, .T. ) ;
#120 = PRODUCT_RELATED_PRODUCT_CATEGORY ( 'detail', '', ( #64 ) ) ;
#121 = CLOSED_SHELL ( 'NONE', ( #125, #136, #244 ) ) ;
#122 = AXIS2_PLACEMENT_3D ( 'NONE', #71, #108, #53 ) ;
#123 = CC_DESIGN_PERSON_AND_ORGANIZATION_ASSIGNMENT ( #202, #253, ( #261 ) ) ;
#124 = ORIENTED_EDGE ( 'NONE', *, *, #182, .T. ) ;
#125 = ADVANCED_FACE ( 'NONE', ( #149 ), #150, .T. ) ;
#126 = CARTESIAN_POINT ( 'NONE',  ( 2.157735467405056287E-13, 3.749399456654629240E-32, 61.79999999999999716 ) ) ;
#127 = VERTEX_POINT ( 'NONE', #207 ) ;
#128 = VERTEX_POINT ( 'NONE', #208 ) ;
#129 = CIRCLE ( 'NONE', #102, 4.750000000000011546 ) ;
#130 = APPROVAL_ROLE ( '' ) ;
#131 = CARTESIAN_POINT ( 'NONE',  ( 2.157735467405056287E-13, -4.750000000000038192, 61.79999999999999716 ) ) ;
#132 = CARTESIAN_POINT ( 'NONE',  ( 4.119947979834897107E-13, -1.445083222993876641E-14, 118.0000000000000000 ) ) ;
#133 = DIRECTION ( 'NONE',  ( 0.0000000000000000000, 1.000000000000000000, 0.0000000000000000000 ) ) ;
#134 = CONICAL_SURFACE ( 'NONE', #61, 5.500000000000027534, 0.5235987755983019243 ) ;
#135 = FACE_OUTER_BOUND ( 'NONE', #37, .T. ) ;
#136 = ADVANCED_FACE ( 'NONE', ( #210, #87 ), #190, .T. ) ;
#137 = ADVANCED_FACE ( 'NONE', ( #194 ), #7, .F. ) ;
#138 = APPROVAL_ROLE ( '' ) ;
#139 = APPROVAL ( #111, 'UNSPECIFIED' ) ;
#140 = CARTESIAN_POINT ( 'NONE',  ( 2.489426194595154272E-13, -3.122502256758252770E-14, 71.29999999999999716 ) ) ;
#141 = DIRECTION ( 'NONE',  ( -3.491481338843133355E-15, 1.224646799147353207E-16, -1.000000000000000000 ) ) ;
#142 = AXIS2_PLACEMENT_3D ( 'NONE', #179, #196, #215 ) ;
#143 = ADVANCED_FACE ( 'NONE', ( #251, #256 ), #17, .T. ) ;
#144 = LOCAL_TIME ( 14, 57, 19.00000000000000000, #75 ) ;
#145 = VERTEX_POINT ( 'NONE', #9 ) ;
#146 = CARTESIAN_POINT ( 'NONE',  ( 4.085033166446465899E-13, -1.432836755002403127E-14, 117.0000000000000000 ) ) ;
#147 = PERSON ( 'UNSPECIFIED', 'UNSPECIFIED', 'UNSPECIFIED', ('UNSPECIFIED'), ('UNSPECIFIED'), ('UNSPECIFIED') ) ;
#148 = CARTESIAN_POINT ( 'NONE',  ( 2.157735467405056287E-13, 3.749399456654629240E-32, 61.79999999999999716 ) ) ;
#149 = FACE_OUTER_BOUND ( 'NONE', #191, .T. ) ;
#150 = CONICAL_SURFACE ( 'NONE', #142, 4.999999999999987566, 1.221730476396026610 ) ;
#151 = PERSON_AND_ORGANIZATION ( #147, #46 ) ;
#152 = DIRECTION ( 'NONE',  ( -3.491481338843133355E-15, 1.224646799147353207E-16, -1.000000000000000000 ) ) ;
#153 = ORIENTED_EDGE ( 'NONE', *, *, #101, .F. ) ;
#154 = DIRECTION ( 'NONE',  ( 0.0000000000000000000, 1.000000000000000000, 0.0000000000000000000 ) ) ;
#155 = EDGE_LOOP ( 'NONE', ( #49 ) ) ;
#156 = DATE_AND_TIME ( #117, #184 ) ;
#157 = APPLICATION_CONTEXT ( 'configuration controlled 3d designs of mechanical parts and assemblies' ) ;
#158 = DIRECTION ( 'NONE',  ( -3.491481338843133355E-15, 4.327174794786742882E-16, -1.000000000000000000 ) ) ;
#159 = DIRECTION ( 'NONE',  ( -3.491481338843133355E-15, 4.327174794786742882E-16, -1.000000000000000000 ) ) ;
#160 = PERSON_AND_ORGANIZATION_ROLE ( 'design_owner' ) ;
#161 = CLOSED_SHELL ( 'NONE', ( #143, #177, #137, #36, #249, #5, #220 ) ) ;
#162 =( GEOMETRIC_REPRESENTATION_CONTEXT ( 3 ) GLOBAL_UNCERTAINTY_ASSIGNED_CONTEXT ( ( #74 ) ) GLOBAL_UNIT_ASSIGNED_CONTEXT ( ( #172, #205, #229 ) ) REPRESENTATION_CONTEXT ( 'NONE', 'WORKASPACE' ) );
#163 = DIRECTION ( 'NONE',  ( 0.0000000000000000000, 0.0000000000000000000, 1.000000000000000000 ) ) ;
#164 = PERSON_AND_ORGANIZATION_ROLE ( 'design_supplier' ) ;
#165 = AXIS2_PLACEMENT_3D ( 'NONE', #126, #206, #109 ) ;
#166 = APPLICATION_PROTOCOL_DEFINITION ( 'international standard', 'config_control_design', 1994, #168 ) ;
#167 = CC_DESIGN_APPROVAL ( #236, ( #110 ) ) ;
#168 = APPLICATION_CONTEXT ( 'configuration controlled 3d designs of mechanical parts and assemblies' ) ;
#169 = CARTESIAN_POINT ( 'NONE',  ( 6.036277583965433361E-15, -4.750000000000011546, 1.728858612764487157 ) ) ;
#170 = EDGE_LOOP ( 'NONE', ( #124 ) ) ;
#171 = EDGE_CURVE ( 'NONE', #127, #127, #68, .T. ) ;
#172 =( LENGTH_UNIT ( ) NAMED_UNIT ( * ) SI_UNIT ( .MILLI., .METRE. ) );
#173 = CARTESIAN_POINT ( 'NONE',  ( 0.0000000000000000000, 0.0000000000000000000, 0.0000000000000000000 ) ) ;
#174 = ORIENTED_EDGE ( 'NONE', *, *, #171, .T. ) ;
#175 = CALENDAR_DATE ( 2021, 13, 10 ) ;
#176 = FACE_OUTER_BOUND ( 'NONE', #216, .T. ) ;
#177 = ADVANCED_FACE ( 'NONE', ( #176, #73 ), #219, .T. ) ;
#178 = COORDINATED_UNIVERSAL_TIME_OFFSET ( 1, 0, .AHEAD. ) ;
#179 = CARTESIAN_POINT ( 'NONE',  ( 6.353976404174112936E-15, -2.228674911895109038E-16, 1.819851171331031026 ) ) ;
#180 = APPROVAL ( #92, 'UNSPECIFIED' ) ;
#181 = AXIS2_PLACEMENT_3D ( 'NONE', #242, #248, #65 ) ;
#182 = EDGE_CURVE ( 'NONE', #66, #66, #24, .T. ) ;
#183 = DIRECTION ( 'NONE',  ( 0.0000000000000000000, 1.000000000000000000, 0.0000000000000000000 ) ) ;
#184 = LOCAL_TIME ( 14, 57, 19.00000000000000000, #50 ) ;
#185 = CALENDAR_DATE ( 2021, 13, 10 ) ;
#186 = AXIS2_PLACEMENT_3D ( 'NONE', #76, #158, #183 ) ;
#187 = PRODUCT_DEFINITION ( 'UNKNOWN', '', #110, #35 ) ;
#188 = DIRECTION ( 'NONE',  ( 0.0000000000000000000, -1.000000000000000000, 0.0000000000000000000 ) ) ;
#189 = ORIENTED_EDGE ( 'NONE', *, *, #52, .F. ) ;
#190 = CYLINDRICAL_SURFACE ( 'NONE', #203, 4.750000000000011546 ) ;
#191 = EDGE_LOOP ( 'NONE', ( #115 ) ) ;
#192 = CARTESIAN_POINT ( 'NONE',  ( 4.119947979834897107E-13, 2.999519565323694963E-32, 118.0000000000000000 ) ) ;
#193 = LOCAL_TIME ( 14, 57, 19.00000000000000000, #178 ) ;
#194 = FACE_OUTER_BOUND ( 'NONE', #212, .T. ) ;
#195 = CALENDAR_DATE ( 2021, 13, 10 ) ;
#196 = DIRECTION ( 'NONE',  ( 3.491481338843133355E-15, -1.224646799147353207E-16, 1.000000000000000000 ) ) ;
#197 = FACE_OUTER_BOUND ( 'NONE', #89, .T. ) ;
#198 = MECHANICAL_CONTEXT ( 'NONE', #157, 'mechanical' ) ;
#199 = DIRECTION ( 'NONE',  ( -4.865507227925636993E-31, -1.000000000000000000, -1.369518533665897107E-16 ) ) ;
#200 = APPROVAL_PERSON_ORGANIZATION ( #118, #236, #130 ) ;
#201 = ORIENTED_EDGE ( 'NONE', *, *, #82, .T. ) ;
#202 = PERSON_AND_ORGANIZATION ( #147, #46 ) ;
#203 = AXIS2_PLACEMENT_3D ( 'NONE', #173, #33, #67 ) ;
#204 = EDGE_LOOP ( 'NONE', ( #174 ) ) ;
#205 =( NAMED_UNIT ( * ) PLANE_ANGLE_UNIT ( ) SI_UNIT ( $, .RADIAN. ) );
#206 = DIRECTION ( 'NONE',  ( 3.491481338843133355E-15, -1.224646799147353207E-16, 1.000000000000000000 ) ) ;
#207 = CARTESIAN_POINT ( 'NONE',  ( 4.119947979834897107E-13, 3.999999999999988010, 118.0000000000000000 ) ) ;
#208 = CARTESIAN_POINT ( 'NONE',  ( 2.157735467405056287E-13, -4.750000000000038192, 61.79999999999999716 ) ) ;
#209 = PERSON_AND_ORGANIZATION ( #147, #46 ) ;
#210 = FACE_OUTER_BOUND ( 'NONE', #21, .T. ) ;
#211 = EDGE_CURVE ( 'NONE', #145, #145, #78, .T. ) ;
#212 = EDGE_LOOP ( 'NONE', ( #54 ) ) ;
#213 = DIRECTION ( 'NONE',  ( -4.275831445896958607E-31, -1.000000000000000000, -1.224646799147353207E-16 ) ) ;
#214 = APPROVAL_DATE_TIME ( #156, #180 ) ;
#215 = DIRECTION ( 'NONE',  ( -4.622231866529377433E-31, -1.000000000000000000, -1.301042606982608526E-16 ) ) ;
#216 = EDGE_LOOP ( 'NONE', ( #77 ) ) ;
#217 = ORIENTED_EDGE ( 'NONE', *, *, #79, .F. ) ;
#218 = FACE_OUTER_BOUND ( 'NONE', #170, .T. ) ;
#219 = CONICAL_SURFACE ( 'NONE', #122, 4.000000000000002665, 0.7853981633974479459 ) ;
#220 = ADVANCED_FACE ( 'NONE', ( #105 ), #228, .F. ) ;
#221 = PERSON_AND_ORGANIZATION ( #147, #46 ) ;
#222 = AXIS2_PLACEMENT_3D ( 'NONE', #20, #58, #80 ) ;
#223 = MANIFOLD_SOLID_BREP ( 'Corps-Déplacer/Copier1[2]', #121 ) ;
#224 = DIRECTION ( 'NONE',  ( 3.491481338843133355E-15, -1.224646799147353207E-16, 1.000000000000000000 ) ) ;
#225 = DIRECTION ( 'NONE',  ( 3.491481338843133355E-15, -4.327174794786742882E-16, 1.000000000000000000 ) ) ;
#226 = AXIS2_PLACEMENT_3D ( 'NONE', #132, #232, #154 ) ;
#227 = FACE_OUTER_BOUND ( 'NONE', #43, .T. ) ;
#228 = PLANE ( 'NONE',  #116 ) ;
#229 =( NAMED_UNIT ( * ) SI_UNIT ( $, .STERADIAN. ) SOLID_ANGLE_UNIT ( ) );
#230 = MANIFOLD_SOLID_BREP ( 'Corps-Déplacer/Copier1[1]', #161 ) ;
#231 = SHAPE_DEFINITION_REPRESENTATION ( #246, #86 ) ;
#232 = DIRECTION ( 'NONE',  ( -3.491481338843133355E-15, 1.224646799147353207E-16, -1.000000000000000000 ) ) ;
#233 = ORIENTED_EDGE ( 'NONE', *, *, #119, .T. ) ;
#234 = AXIS2_PLACEMENT_3D ( 'NONE', #260, #141, #239 ) ;
#235 = EDGE_LOOP ( 'NONE', ( #113 ) ) ;
#236 = APPROVAL ( #240, 'UNSPECIFIED' ) ;
#237 = DIRECTION ( 'NONE',  ( 1.510825004591027855E-30, 1.000000000000000000, 4.327174794786742389E-16 ) ) ;
#238 = AXIS2_PLACEMENT_3D ( 'NONE', #146, #152, #133 ) ;
#239 = DIRECTION ( 'NONE',  ( 0.0000000000000000000, -1.000000000000000000, 0.0000000000000000000 ) ) ;
#240 = APPROVAL_STATUS ( 'not_yet_approved' ) ;
#241 = DIRECTION ( 'NONE',  ( 1.000000000000000000, 0.0000000000000000000, 0.0000000000000000000 ) ) ;
#242 = CARTESIAN_POINT ( 'NONE',  ( 2.157735467405056287E-13, -2.674194023178206912E-14, 61.79999999999999716 ) ) ;
#243 = AXIS2_PLACEMENT_3D ( 'NONE', #192, #112, #15 ) ;
#244 = ADVANCED_FACE ( 'NONE', ( #31 ), #44, .T. ) ;
#245 = CC_DESIGN_SECURITY_CLASSIFICATION ( #261, ( #110 ) ) ;
#246 = PRODUCT_DEFINITION_SHAPE ( 'NONE', 'NONE',  #187 ) ;
#247 = CARTESIAN_POINT ( 'NONE',  ( 2.489426194595154272E-13, 4.749999999999992006, 71.29999999999999716 ) ) ;
#248 = DIRECTION ( 'NONE',  ( -3.491481338843133355E-15, 1.224646799147353207E-16, -1.000000000000000000 ) ) ;
#249 = ADVANCED_FACE ( 'NONE', ( #103, #227 ), #134, .T. ) ;
#250 = VERTEX_POINT ( 'NONE', #45 ) ;
#251 = FACE_OUTER_BOUND ( 'NONE', #155, .T. ) ;
#252 = AXIS2_PLACEMENT_3D ( 'NONE', #19, #57, #237 ) ;
#253 = PERSON_AND_ORGANIZATION_ROLE ( 'classification_officer' ) ;
#254 = DIRECTION ( 'NONE',  ( -3.491481338843133355E-15, 1.224646799147353207E-16, -1.000000000000000000 ) ) ;
#255 = PERSON_AND_ORGANIZATION ( #147, #46 ) ;
#256 = FACE_OUTER_BOUND ( 'NONE', #235, .T. ) ;
#257 = SECURITY_CLASSIFICATION_LEVEL ( 'unclassified' ) ;
#258 = DIRECTION ( 'NONE',  ( -3.491481338843133355E-15, 1.224646799147353207E-16, -1.000000000000000000 ) ) ;
#259 = LOCAL_TIME ( 14, 57, 19.00000000000000000, #107 ) ;
#260 = CARTESIAN_POINT ( 'NONE',  ( 2.157735467405056287E-13, -2.674194023178206912E-14, 61.79999999999999716 ) ) ;
#261 = SECURITY_CLASSIFICATION ( '', '', #257 ) ;
#262 = CARTESIAN_POINT ( 'NONE',  ( 0.0000000000000000000, 0.0000000000000000000, 0.0000000000000000000 ) ) ;
#263 = APPROVAL_DATE_TIME ( #22, #236 ) ;
ENDSEC;
END-ISO-10303-21;
