ISO-10303-21;
HEADER;
FILE_DESCRIPTION (( 'STEP AP203' ),
    '1' );
FILE_NAME ('960191.step',
    '2021-10-13T12:57:19',
    ( '' ),
    ( '' ),
    'SwSTEP 2.0',
    'SolidWorks 2019',
    '' );
FILE_SCHEMA (( 'CONFIG_CONTROL_DESIGN' ));
ENDSEC;

DATA;
#1 = AXIS2_PLACEMENT_3D ( 'NONE', #30, #261, #200 ) ;
#2 = APPROVAL_PERSON_ORGANIZATION ( #34, #248, #97 ) ;
#3 = PLANE ( 'NONE',  #57 ) ;
#4 = ORIENTED_EDGE ( 'NONE', *, *, #157, .F. ) ;
#5 = DIRECTION ( 'NONE',  ( 3.491481338843133355E-15, -1.224646799147353207E-16, 1.000000000000000000 ) ) ;
#6 = EDGE_LOOP ( 'NONE', ( #148 ) ) ;
#7 = VERTEX_POINT ( 'NONE', #207 ) ;
#8 = DIRECTION ( 'NONE',  ( -3.491481338843133355E-15, 4.327174794786742882E-16, -1.000000000000000000 ) ) ;
#9 = CARTESIAN_POINT ( 'NONE',  ( 0.0000000000000000000, 0.0000000000000000000, 0.0000000000000000000 ) ) ;
#10 = DIRECTION ( 'NONE',  ( 0.0000000000000000000, 1.000000000000000000, 0.0000000000000000000 ) ) ;
#11 = CIRCLE ( 'NONE', #43, 4.500000000000009770 ) ;
#12 = COORDINATED_UNIVERSAL_TIME_OFFSET ( 1, 0, .AHEAD. ) ;
#13 = APPROVAL_STATUS ( 'not_yet_approved' ) ;
#14 = CIRCLE ( 'NONE', #71, 5.000000000000002665 ) ;
#15 = VERTEX_POINT ( 'NONE', #260 ) ;
#16 = PRODUCT ( '960191', '960191', '', ( #117 ) ) ;
#17 = APPROVAL_DATE_TIME ( #245, #248 ) ;
#18 = ORIENTED_EDGE ( 'NONE', *, *, #157, .T. ) ;
#19 = FACE_OUTER_BOUND ( 'NONE', #173, .T. ) ;
#20 = ORIENTED_EDGE ( 'NONE', *, *, #53, .F. ) ;
#21 = CARTESIAN_POINT ( 'NONE',  ( 2.042516583223233202E-13, -2.531397254950244744E-14, 58.50000000000000000 ) ) ;
#22 = VERTEX_POINT ( 'NONE', #41 ) ;
#23 = CC_DESIGN_APPROVAL ( #211, ( #181 ) ) ;
#24 = DIRECTION ( 'NONE',  ( -3.491481338843133355E-15, 1.224646799147353207E-16, -1.000000000000000000 ) ) ;
#25 = EDGE_LOOP ( 'NONE', ( #167 ) ) ;
#26 = CARTESIAN_POINT ( 'NONE',  ( 2.374207310413330682E-13, -2.942478860454985160E-14, 68.00000000000000000 ) ) ;
#27 = ADVANCED_FACE ( 'NONE', ( #47, #126 ), #78, .F. ) ;
#28 = DIRECTION ( 'NONE',  ( 0.0000000000000000000, 0.0000000000000000000, 1.000000000000000000 ) ) ;
#29 = PERSON_AND_ORGANIZATION ( #107, #182 ) ;
#30 = CARTESIAN_POINT ( 'NONE',  ( 2.042516583223233202E-13, 3.749399456654630335E-32, 58.50000000000000000 ) ) ;
#31 = CIRCLE ( 'NONE', #183, 4.000000000000002665 ) ;
#32 = CARTESIAN_POINT ( 'NONE',  ( 0.0000000000000000000, 0.0000000000000000000, 0.0000000000000000000 ) ) ;
#33 = DATE_AND_TIME ( #217, #101 ) ;
#34 = PERSON_AND_ORGANIZATION ( #107, #182 ) ;
#35 = CLOSED_SHELL ( 'NONE', ( #226, #82, #39 ) ) ;
#36 = AXIS2_PLACEMENT_3D ( 'NONE', #210, #44, #123 ) ;
#37 = COORDINATED_UNIVERSAL_TIME_OFFSET ( 1, 0, .AHEAD. ) ;
#38 = CLOSED_SHELL ( 'NONE', ( #110, #163, #153, #125, #246, #27, #223 ) ) ;
#39 = ADVANCED_FACE ( 'NONE', ( #109 ), #100, .T. ) ;
#40 = EDGE_LOOP ( 'NONE', ( #87 ) ) ;
#41 = CARTESIAN_POINT ( 'NONE',  ( 2.356749903719115078E-13, 4.499999999999991118, 67.50000000000000000 ) ) ;
#42 = EDGE_LOOP ( 'NONE', ( #113 ) ) ;
#43 = AXIS2_PLACEMENT_3D ( 'NONE', #21, #128, #85 ) ;
#44 = DIRECTION ( 'NONE',  ( 3.491481338843133355E-15, -1.224646799147353207E-16, 1.000000000000000000 ) ) ;
#45 = EDGE_LOOP ( 'NONE', ( #20 ) ) ;
#46 = CYLINDRICAL_SURFACE ( 'NONE', #224, 4.500000000000009770 ) ;
#47 = FACE_OUTER_BOUND ( 'NONE', #45, .T. ) ;
#48 = MANIFOLD_SOLID_BREP ( 'Corps-Déplacer/Copier1[1]', #38 ) ;
#49 = CARTESIAN_POINT ( 'NONE',  ( 2.042516583223233202E-13, -4.500000000000035527, 58.50000000000000000 ) ) ;
#50 = CC_DESIGN_DATE_AND_TIME_ASSIGNMENT ( #222, #77, ( #179 ) ) ;
#51 = ORIENTED_EDGE ( 'NONE', *, *, #143, .T. ) ;
#52 = CARTESIAN_POINT ( 'NONE',  ( 2.426579530495977493E-13, -3.007386482376786461E-14, 69.50000000000000000 ) ) ;
#53 = EDGE_CURVE ( 'NONE', #22, #22, #151, .T. ) ;
#54 = CC_DESIGN_SECURITY_CLASSIFICATION ( #179, ( #181 ) ) ;
#55 = CALENDAR_DATE ( 2021, 13, 10 ) ;
#56 = PERSON_AND_ORGANIZATION ( #107, #182 ) ;
#57 = AXIS2_PLACEMENT_3D ( 'NONE', #83, #124, #215 ) ;
#58 = PERSON_AND_ORGANIZATION_ROLE ( 'creator' ) ;
#59 = PERSON_AND_ORGANIZATION_ROLE ( 'design_supplier' ) ;
#60 = DESIGN_CONTEXT ( 'detailed design', #188, 'design' ) ;
#61 = EDGE_CURVE ( 'NONE', #209, #209, #138, .T. ) ;
#62 = CARTESIAN_POINT ( 'NONE',  ( 6.353976404174112936E-15, -2.228674911895109038E-16, 1.819851171331031026 ) ) ;
#63 = EDGE_LOOP ( 'NONE', ( #18 ) ) ;
#64 = DIRECTION ( 'NONE',  ( -3.491481338843133355E-15, 4.327174794786742882E-16, -1.000000000000000000 ) ) ;
#65 = DIRECTION ( 'NONE',  ( 0.0000000000000000000, -1.000000000000000000, 0.0000000000000000000 ) ) ;
#66 = APPROVAL_PERSON_ORGANIZATION ( #56, #129, #154 ) ;
#67 = ORIENTED_EDGE ( 'NONE', *, *, #204, .F. ) ;
#68 = CARTESIAN_POINT ( 'NONE',  ( 5.718578763756726965E-15, -4.500000000000009770, 1.637866054197934851 ) ) ;
#69 = EDGE_LOOP ( 'NONE', ( #150 ) ) ;
#70 = FACE_OUTER_BOUND ( 'NONE', #42, .T. ) ;
#71 = AXIS2_PLACEMENT_3D ( 'NONE', #155, #145, #162 ) ;
#72 = CARTESIAN_POINT ( 'NONE',  ( 0.0000000000000000000, 0.0000000000000000000, 0.0000000000000000000 ) ) ;
#73 = APPROVAL_STATUS ( 'not_yet_approved' ) ;
#74 = PERSON_AND_ORGANIZATION_ROLE ( 'creator' ) ;
#75 = APPROVAL_PERSON_ORGANIZATION ( #29, #211, #115 ) ;
#76 = APPLICATION_CONTEXT ( 'configuration controlled 3d designs of mechanical parts and assemblies' ) ;
#77 = DATE_TIME_ROLE ( 'classification_date' ) ;
#78 = TOROIDAL_SURFACE ( 'NONE', #227, 5.500000000000020428, 0.9999999999999995559 ) ;
#79 = CC_DESIGN_PERSON_AND_ORGANIZATION_ASSIGNMENT ( #238, #130, ( #179 ) ) ;
#80 = PERSON_AND_ORGANIZATION ( #107, #182 ) ;
#81 = CONICAL_SURFACE ( 'NONE', #232, 4.999999999999987566, 1.221730476396026610 ) ;
#82 = ADVANCED_FACE ( 'NONE', ( #86, #236 ), #214, .T. ) ;
#83 = CARTESIAN_POINT ( 'NONE',  ( 4.119947979834897107E-13, 2.999519565323694963E-32, 118.0000000000000000 ) ) ;
#84 = EDGE_LOOP ( 'NONE', ( #233 ) ) ;
#85 = DIRECTION ( 'NONE',  ( 0.0000000000000000000, -1.000000000000000000, 0.0000000000000000000 ) ) ;
#86 = FACE_OUTER_BOUND ( 'NONE', #69, .T. ) ;
#87 = ORIENTED_EDGE ( 'NONE', *, *, #250, .F. ) ;
#88 = VERTEX_POINT ( 'NONE', #49 ) ;
#89 = CARTESIAN_POINT ( 'NONE',  ( 2.042516583223233202E-13, -2.531397254950244744E-14, 58.50000000000000000 ) ) ;
#90 = DIRECTION ( 'NONE',  ( 1.510825004591027855E-30, 1.000000000000000000, 4.327174794786742882E-16 ) ) ;
#91 = EDGE_CURVE ( 'NONE', #252, #252, #14, .T. ) ;
#92 = FACE_BOUND ( 'NONE', #170, .T. ) ;
#93 = FACE_OUTER_BOUND ( 'NONE', #63, .T. ) ;
#94 = DIRECTION ( 'NONE',  ( -3.491481338843133355E-15, 1.224646799147353207E-16, -1.000000000000000000 ) ) ;
#95 = CALENDAR_DATE ( 2021, 13, 10 ) ;
#96 = DATE_AND_TIME ( #95, #136 ) ;
#97 = APPROVAL_ROLE ( '' ) ;
#98 = SHAPE_DEFINITION_REPRESENTATION ( #203, #221 ) ;
#99 = CC_DESIGN_PERSON_AND_ORGANIZATION_ASSIGNMENT ( #152, #74, ( #220 ) ) ;
#100 = PLANE ( 'NONE',  #1 ) ;
#101 = LOCAL_TIME ( 14, 57, 19.00000000000000000, #239 ) ;
#102 = AXIS2_PLACEMENT_3D ( 'NONE', #52, #114, #249 ) ;
#103 = CARTESIAN_POINT ( 'NONE',  ( 4.119947979834897107E-13, -1.445083222993876641E-14, 118.0000000000000000 ) ) ;
#104 = FACE_OUTER_BOUND ( 'NONE', #230, .T. ) ;
#105 = EDGE_LOOP ( 'NONE', ( #208 ) ) ;
#106 = FACE_OUTER_BOUND ( 'NONE', #165, .T. ) ;
#107 = PERSON ( 'UNSPECIFIED', 'UNSPECIFIED', 'UNSPECIFIED', ('UNSPECIFIED'), ('UNSPECIFIED'), ('UNSPECIFIED') ) ;
#108 = CARTESIAN_POINT ( 'NONE',  ( 4.085033166446465899E-13, 4.999999999999987566, 117.0000000000000000 ) ) ;
#109 = FACE_OUTER_BOUND ( 'NONE', #212, .T. ) ;
#110 = ADVANCED_FACE ( 'NONE', ( #104, #106 ), #169, .T. ) ;
#111 = AXIS2_PLACEMENT_3D ( 'NONE', #262, #159, #243 ) ;
#112 = FACE_OUTER_BOUND ( 'NONE', #25, .T. ) ;
#113 = ORIENTED_EDGE ( 'NONE', *, *, #177, .T. ) ;
#114 = DIRECTION ( 'NONE',  ( 3.491481338843133355E-15, -4.327174794786742882E-16, 1.000000000000000000 ) ) ;
#115 = APPROVAL_ROLE ( '' ) ;
#116 = CC_DESIGN_APPROVAL ( #248, ( #179 ) ) ;
#117 = MECHANICAL_CONTEXT ( 'NONE', #76, 'mechanical' ) ;
#118 = APPROVAL_DATE_TIME ( #33, #129 ) ;
#119 = CONICAL_SURFACE ( 'NONE', #241, 4.000000000000002665, 0.7853981633974479459 ) ;
#120 = FACE_OUTER_BOUND ( 'NONE', #40, .T. ) ;
#121 = ORIENTED_EDGE ( 'NONE', *, *, #61, .F. ) ;
#122 = AXIS2_PLACEMENT_3D ( 'NONE', #9, #255, #237 ) ;
#123 = DIRECTION ( 'NONE',  ( -4.275831445896958607E-31, -1.000000000000000000, -1.224646799147353207E-16 ) ) ;
#124 = DIRECTION ( 'NONE',  ( -3.491481338843133355E-15, 1.224646799147353207E-16, -1.000000000000000000 ) ) ;
#125 = ADVANCED_FACE ( 'NONE', ( #19, #144 ), #46, .T. ) ;
#126 = FACE_OUTER_BOUND ( 'NONE', #105, .T. ) ;
#127 = VERTEX_POINT ( 'NONE', #68 ) ;
#128 = DIRECTION ( 'NONE',  ( -3.491481338843133355E-15, 1.224646799147353207E-16, -1.000000000000000000 ) ) ;
#129 = APPROVAL ( #73, 'UNSPECIFIED' ) ;
#130 = PERSON_AND_ORGANIZATION_ROLE ( 'classification_officer' ) ;
#131 = DATE_TIME_ROLE ( 'creation_date' ) ;
#132 = MANIFOLD_SOLID_BREP ( 'Corps-Déplacer/Copier1[2]', #35 ) ;
#133 = CC_DESIGN_APPROVAL ( #129, ( #220 ) ) ;
#134 = DIRECTION ( 'NONE',  ( 1.000000000000000000, 0.0000000000000000000, 0.0000000000000000000 ) ) ;
#135 = AXIS2_PLACEMENT_3D ( 'NONE', #256, #191, #251 ) ;
#136 = LOCAL_TIME ( 14, 57, 19.00000000000000000, #197 ) ;
#137 = CC_DESIGN_PERSON_AND_ORGANIZATION_ASSIGNMENT ( #259, #58, ( #181 ) ) ;
#138 = CIRCLE ( 'NONE', #247, 4.500000000000009770 ) ;
#139 = DIRECTION ( 'NONE',  ( -3.491481338843133355E-15, 1.224646799147353207E-16, -1.000000000000000000 ) ) ;
#140 = ORIENTED_EDGE ( 'NONE', *, *, #91, .T. ) ;
#141 = PLANE ( 'NONE',  #36 ) ;
#142 = CONICAL_SURFACE ( 'NONE', #102, 5.500000000000024869, 0.5235987755983001479 ) ;
#143 = EDGE_CURVE ( 'NONE', #7, #7, #168, .T. ) ;
#144 = FACE_OUTER_BOUND ( 'NONE', #146, .T. ) ;
#145 = DIRECTION ( 'NONE',  ( -3.491481338843133355E-15, 1.224646799147353207E-16, -1.000000000000000000 ) ) ;
#146 = EDGE_LOOP ( 'NONE', ( #4 ) ) ;
#147 = DIRECTION ( 'NONE',  ( -3.491481338843133355E-15, 4.327174794786742882E-16, -1.000000000000000000 ) ) ;
#148 = ORIENTED_EDGE ( 'NONE', *, *, #250, .T. ) ;
#149 = DIRECTION ( 'NONE',  ( -4.622231866529377433E-31, -1.000000000000000000, -1.301042606982608526E-16 ) ) ;
#150 = ORIENTED_EDGE ( 'NONE', *, *, #61, .T. ) ;
#151 = CIRCLE ( 'NONE', #111, 4.500000000000020428 ) ;
#152 = PERSON_AND_ORGANIZATION ( #107, #182 ) ;
#153 = ADVANCED_FACE ( 'NONE', ( #120 ), #3, .F. ) ;
#154 = APPROVAL_ROLE ( '' ) ;
#155 = CARTESIAN_POINT ( 'NONE',  ( 4.085033166446465899E-13, -1.432836755002403127E-14, 117.0000000000000000 ) ) ;
#156 = APPROVAL_STATUS ( 'not_yet_approved' ) ;
#157 = EDGE_CURVE ( 'NONE', #88, #88, #11, .T. ) ;
#158 = DATE_AND_TIME ( #55, #229 ) ;
#159 = DIRECTION ( 'NONE',  ( -3.491481338843133355E-15, 4.327174794786742882E-16, -1.000000000000000000 ) ) ;
#160 = UNCERTAINTY_MEASURE_WITH_UNIT (LENGTH_MEASURE( 1.000000000000000082E-05 ), #195, 'distance_accuracy_value', 'NONE');
#161 = AXIS2_PLACEMENT_3D ( 'NONE', #234, #184, #189 ) ;
#162 = DIRECTION ( 'NONE',  ( 0.0000000000000000000, 1.000000000000000000, 0.0000000000000000000 ) ) ;
#163 = ADVANCED_FACE ( 'NONE', ( #193, #164 ), #119, .T. ) ;
#164 = FACE_BOUND ( 'NONE', #6, .T. ) ;
#165 = EDGE_LOOP ( 'NONE', ( #140 ) ) ;
#166 = DIRECTION ( 'NONE',  ( 0.0000000000000000000, 1.000000000000000000, 0.0000000000000000000 ) ) ;
#167 = ORIENTED_EDGE ( 'NONE', *, *, #143, .F. ) ;
#168 = CIRCLE ( 'NONE', #161, 4.999999999999999112 ) ;
#169 = CYLINDRICAL_SURFACE ( 'NONE', #122, 4.999999999999999112 ) ;
#170 = EDGE_LOOP ( 'NONE', ( #67 ) ) ;
#171 = CC_DESIGN_PERSON_AND_ORGANIZATION_ASSIGNMENT ( #198, #59, ( #181 ) ) ;
#172 = DIRECTION ( 'NONE',  ( 1.510825004591027855E-30, 1.000000000000000000, 4.327174794786743375E-16 ) ) ;
#173 = EDGE_LOOP ( 'NONE', ( #185 ) ) ;
#174 =( NAMED_UNIT ( * ) PLANE_ANGLE_UNIT ( ) SI_UNIT ( $, .RADIAN. ) );
#175 = CC_DESIGN_DATE_AND_TIME_ASSIGNMENT ( #158, #131, ( #220 ) ) ;
#176 = APPROVAL_DATE_TIME ( #96, #211 ) ;
#177 = EDGE_CURVE ( 'NONE', #127, #127, #263, .T. ) ;
#178 = CALENDAR_DATE ( 2021, 13, 10 ) ;
#179 = SECURITY_CLASSIFICATION ( '', '', #199 ) ;
#180 = APPLICATION_PROTOCOL_DEFINITION ( 'international standard', 'config_control_design', 1994, #76 ) ;
#181 = PRODUCT_DEFINITION_FORMATION_WITH_SPECIFIED_SOURCE ( 'ANY', '', #16, .NOT_KNOWN. ) ;
#182 = ORGANIZATION ( 'UNSPECIFIED', 'UNSPECIFIED', '' ) ;
#183 = AXIS2_PLACEMENT_3D ( 'NONE', #235, #139, #228 ) ;
#184 = DIRECTION ( 'NONE',  ( 3.491481338843133355E-15, -4.327174794786742882E-16, 1.000000000000000000 ) ) ;
#185 = ORIENTED_EDGE ( 'NONE', *, *, #53, .T. ) ;
#186 = LOCAL_TIME ( 14, 57, 19.00000000000000000, #12 ) ;
#187 = CARTESIAN_POINT ( 'NONE',  ( 2.042516583223233202E-13, -4.500000000000035527, 58.50000000000000000 ) ) ;
#188 = APPLICATION_CONTEXT ( 'configuration controlled 3d designs of mechanical parts and assemblies' ) ;
#189 = DIRECTION ( 'NONE',  ( 0.0000000000000000000, -1.000000000000000000, 0.0000000000000000000 ) ) ;
#190 = CARTESIAN_POINT ( 'NONE',  ( 2.356749903719115078E-13, -2.949029909160572061E-14, 67.50000000000000000 ) ) ;
#191 = DIRECTION ( 'NONE',  ( -3.491481338843133355E-15, 1.224646799147353207E-16, -1.000000000000000000 ) ) ;
#192 = CC_DESIGN_PERSON_AND_ORGANIZATION_ASSIGNMENT ( #80, #258, ( #16 ) ) ;
#193 = FACE_OUTER_BOUND ( 'NONE', #254, .T. ) ;
#194 = DIRECTION ( 'NONE',  ( 1.510825004591027855E-30, 1.000000000000000000, 4.327174794786743375E-16 ) ) ;
#195 =( LENGTH_UNIT ( ) NAMED_UNIT ( * ) SI_UNIT ( .MILLI., .METRE. ) );
#196 = CIRCLE ( 'NONE', #257, 4.633974596215582942 ) ;
#197 = COORDINATED_UNIVERSAL_TIME_OFFSET ( 1, 0, .AHEAD. ) ;
#198 = PERSON_AND_ORGANIZATION ( #107, #182 ) ;
#199 = SECURITY_CLASSIFICATION_LEVEL ( 'unclassified' ) ;
#200 = DIRECTION ( 'NONE',  ( -4.275831445896958607E-31, -1.000000000000000000, -1.224646799147353207E-16 ) ) ;
#201 = APPLICATION_PROTOCOL_DEFINITION ( 'international standard', 'config_control_design', 1994, #188 ) ;
#202 = LOCAL_TIME ( 14, 57, 19.00000000000000000, #37 ) ;
#203 = PRODUCT_DEFINITION_SHAPE ( 'NONE', 'NONE',  #220 ) ;
#204 = EDGE_CURVE ( 'NONE', #213, #213, #196, .T. ) ;
#205 = AXIS2_PLACEMENT_3D ( 'NONE', #72, #242, #194 ) ;
#206 = ORIENTED_EDGE ( 'NONE', *, *, #91, .F. ) ;
#207 = CARTESIAN_POINT ( 'NONE',  ( 2.396342415133201692E-13, -5.000000000000028422, 68.63397459621552343 ) ) ;
#208 = ORIENTED_EDGE ( 'NONE', *, *, #204, .T. ) ;
#209 = VERTEX_POINT ( 'NONE', #187 ) ;
#210 = CARTESIAN_POINT ( 'NONE',  ( 2.042516583223233202E-13, 3.749399456654630335E-32, 58.50000000000000000 ) ) ;
#211 = APPROVAL ( #156, 'UNSPECIFIED' ) ;
#212 = EDGE_LOOP ( 'NONE', ( #121 ) ) ;
#213 = VERTEX_POINT ( 'NONE', #216 ) ;
#214 = CYLINDRICAL_SURFACE ( 'NONE', #205, 4.500000000000009770 ) ;
#215 = DIRECTION ( 'NONE',  ( 4.275831445896958607E-31, 1.000000000000000000, 1.224646799147353207E-16 ) ) ;
#216 = CARTESIAN_POINT ( 'NONE',  ( 2.374207310413330682E-13, 4.633974596215553632, 68.00000000000000000 ) ) ;
#217 = CALENDAR_DATE ( 2021, 13, 10 ) ;
#218 = AXIS2_PLACEMENT_3D ( 'NONE', #32, #28, #134 ) ;
#219 = COORDINATED_UNIVERSAL_TIME_OFFSET ( 1, 0, .AHEAD. ) ;
#220 = PRODUCT_DEFINITION ( 'UNKNOWN', '', #181, #60 ) ;
#221 = ADVANCED_BREP_SHAPE_REPRESENTATION ( '960191', ( #48, #132, #218 ), #253 ) ;
#222 = DATE_AND_TIME ( #178, #186 ) ;
#223 = ADVANCED_FACE ( 'NONE', ( #93 ), #141, .F. ) ;
#224 = AXIS2_PLACEMENT_3D ( 'NONE', #231, #147, #172 ) ;
#225 = CALENDAR_DATE ( 2021, 13, 10 ) ;
#226 = ADVANCED_FACE ( 'NONE', ( #70 ), #81, .T. ) ;
#227 = AXIS2_PLACEMENT_3D ( 'NONE', #190, #8, #90 ) ;
#228 = DIRECTION ( 'NONE',  ( 0.0000000000000000000, 1.000000000000000000, 0.0000000000000000000 ) ) ;
#229 = LOCAL_TIME ( 14, 57, 19.00000000000000000, #219 ) ;
#230 = EDGE_LOOP ( 'NONE', ( #51 ) ) ;
#231 = CARTESIAN_POINT ( 'NONE',  ( 0.0000000000000000000, 0.0000000000000000000, 0.0000000000000000000 ) ) ;
#232 = AXIS2_PLACEMENT_3D ( 'NONE', #62, #5, #149 ) ;
#233 = ORIENTED_EDGE ( 'NONE', *, *, #177, .F. ) ;
#234 = CARTESIAN_POINT ( 'NONE',  ( 2.396342415133201692E-13, -2.969912049387774479E-14, 68.63397459621552343 ) ) ;
#235 = CARTESIAN_POINT ( 'NONE',  ( 4.119947979834897107E-13, -1.445083222993876641E-14, 118.0000000000000000 ) ) ;
#236 = FACE_OUTER_BOUND ( 'NONE', #84, .T. ) ;
#237 = DIRECTION ( 'NONE',  ( 4.275831445896958607E-31, 1.000000000000000000, 1.224646799147353207E-16 ) ) ;
#238 = PERSON_AND_ORGANIZATION ( #107, #182 ) ;
#239 = COORDINATED_UNIVERSAL_TIME_OFFSET ( 1, 0, .AHEAD. ) ;
#240 =( NAMED_UNIT ( * ) SI_UNIT ( $, .STERADIAN. ) SOLID_ANGLE_UNIT ( ) );
#241 = AXIS2_PLACEMENT_3D ( 'NONE', #103, #24, #166 ) ;
#242 = DIRECTION ( 'NONE',  ( -3.491481338843133355E-15, 4.327174794786742882E-16, -1.000000000000000000 ) ) ;
#243 = DIRECTION ( 'NONE',  ( 0.0000000000000000000, 1.000000000000000000, 0.0000000000000000000 ) ) ;
#244 = PRODUCT_RELATED_PRODUCT_CATEGORY ( 'detail', '', ( #16 ) ) ;
#245 = DATE_AND_TIME ( #225, #202 ) ;
#246 = ADVANCED_FACE ( 'NONE', ( #92, #112 ), #142, .T. ) ;
#247 = AXIS2_PLACEMENT_3D ( 'NONE', #89, #94, #65 ) ;
#248 = APPROVAL ( #13, 'UNSPECIFIED' ) ;
#249 = DIRECTION ( 'NONE',  ( 0.0000000000000000000, -1.000000000000000000, 0.0000000000000000000 ) ) ;
#250 = EDGE_CURVE ( 'NONE', #15, #15, #31, .T. ) ;
#251 = DIRECTION ( 'NONE',  ( -3.423875456688411947E-31, -1.000000000000000000, -1.445602896647336205E-16 ) ) ;
#252 = VERTEX_POINT ( 'NONE', #108 ) ;
#253 =( GEOMETRIC_REPRESENTATION_CONTEXT ( 3 ) GLOBAL_UNCERTAINTY_ASSIGNED_CONTEXT ( ( #160 ) ) GLOBAL_UNIT_ASSIGNED_CONTEXT ( ( #195, #174, #240 ) ) REPRESENTATION_CONTEXT ( 'NONE', 'WORKASPACE' ) );
#254 = EDGE_LOOP ( 'NONE', ( #206 ) ) ;
#255 = DIRECTION ( 'NONE',  ( -3.491481338843133355E-15, 1.224646799147353207E-16, -1.000000000000000000 ) ) ;
#256 = CARTESIAN_POINT ( 'NONE',  ( 5.718578763756728543E-15, -2.005807420705607255E-16, 1.637866054197935517 ) ) ;
#257 = AXIS2_PLACEMENT_3D ( 'NONE', #26, #64, #10 ) ;
#258 = PERSON_AND_ORGANIZATION_ROLE ( 'design_owner' ) ;
#259 = PERSON_AND_ORGANIZATION ( #107, #182 ) ;
#260 = CARTESIAN_POINT ( 'NONE',  ( 4.119947979834897107E-13, 3.999999999999988010, 118.0000000000000000 ) ) ;
#261 = DIRECTION ( 'NONE',  ( 3.491481338843133355E-15, -1.224646799147353207E-16, 1.000000000000000000 ) ) ;
#262 = CARTESIAN_POINT ( 'NONE',  ( 2.356749903719115078E-13, -2.920842986481051603E-14, 67.50000000000000000 ) ) ;
#263 = CIRCLE ( 'NONE', #135, 4.500000000000009770 ) ;
ENDSEC;
END-ISO-10303-21;
