ISO-10303-21;
HEADER;
FILE_DESCRIPTION (( 'STEP AP203' ),
    '1' );
FILE_NAME ('960190.step',
    '2021-10-13T12:57:18',
    ( '' ),
    ( '' ),
    'SwSTEP 2.0',
    'SolidWorks 2019',
    '' );
FILE_SCHEMA (( 'CONFIG_CONTROL_DESIGN' ));
ENDSEC;

DATA;
#1 = FACE_OUTER_BOUND ( 'NONE', #212, .T. ) ;
#2 = DIRECTION ( 'NONE',  ( -3.501690807976783821E-31, -1.000000000000000000, -9.856383386231834175E-17 ) ) ;
#3 = ADVANCED_FACE ( 'NONE', ( #223 ), #198, .F. ) ;
#4 = DIRECTION ( 'NONE',  ( 3.491481338843133355E-15, -4.327174794786742882E-16, 1.000000000000000000 ) ) ;
#5 = CIRCLE ( 'NONE', #16, 4.999999999999999112 ) ;
#6 = AXIS2_PLACEMENT_3D ( 'NONE', #124, #141, #122 ) ;
#7 = CARTESIAN_POINT ( 'NONE',  ( 2.350017618123109637E-13, -5.000000000000028422, 67.30717967697241022 ) ) ;
#8 = PERSON_AND_ORGANIZATION ( #197, #24 ) ;
#9 = DIRECTION ( 'NONE',  ( 3.491481338843133355E-15, -4.327174794786742882E-16, 1.000000000000000000 ) ) ;
#10 = PLANE ( 'NONE',  #228 ) ;
#11 = PRODUCT_DEFINITION_SHAPE ( 'NONE', 'NONE',  #137 ) ;
#12 = VERTEX_POINT ( 'NONE', #7 ) ;
#13 = ADVANCED_FACE ( 'NONE', ( #245, #62 ), #121, .T. ) ;
#14 = APPROVAL_STATUS ( 'not_yet_approved' ) ;
#15 = EDGE_LOOP ( 'NONE', ( #36 ) ) ;
#16 = AXIS2_PLACEMENT_3D ( 'NONE', #103, #4, #204 ) ;
#17 = DATE_AND_TIME ( #51, #39 ) ;
#18 = PERSON_AND_ORGANIZATION ( #197, #24 ) ;
#19 = ORIENTED_EDGE ( 'NONE', *, *, #97, .T. ) ;
#20 = ORIENTED_EDGE ( 'NONE', *, *, #118, .F. ) ;
#21 = FACE_OUTER_BOUND ( 'NONE', #154, .T. ) ;
#22 = CC_DESIGN_PERSON_AND_ORGANIZATION_ASSIGNMENT ( #73, #172, ( #145 ) ) ;
#23 = DIRECTION ( 'NONE',  ( 4.275831445896958607E-31, 1.000000000000000000, 1.224646799147353207E-16 ) ) ;
#24 = ORGANIZATION ( 'UNSPECIFIED', 'UNSPECIFIED', '' ) ;
#25 = FACE_OUTER_BOUND ( 'NONE', #15, .T. ) ;
#26 = DIRECTION ( 'NONE',  ( 0.0000000000000000000, -1.000000000000000000, 0.0000000000000000000 ) ) ;
#27 = CC_DESIGN_APPROVAL ( #28, ( #145 ) ) ;
#28 = APPROVAL ( #53, 'UNSPECIFIED' ) ;
#29 = PERSON_AND_ORGANIZATION ( #197, #24 ) ;
#30 = CLOSED_SHELL ( 'NONE', ( #156, #224, #3, #13, #246, #85, #120 ) ) ;
#31 = FACE_BOUND ( 'NONE', #195, .T. ) ;
#32 = AXIS2_PLACEMENT_3D ( 'NONE', #147, #9, #144 ) ;
#33 = APPROVAL ( #186, 'UNSPECIFIED' ) ;
#34 = DATE_TIME_ROLE ( 'classification_date' ) ;
#35 = APPROVAL_DATE_TIME ( #17, #28 ) ;
#36 = ORIENTED_EDGE ( 'NONE', *, *, #118, .T. ) ;
#37 = AXIS2_PLACEMENT_3D ( 'NONE', #80, #105, #100 ) ;
#38 = CALENDAR_DATE ( 2021, 13, 10 ) ;
#39 = LOCAL_TIME ( 14, 57, 18.00000000000000000, #117 ) ;
#40 = EDGE_CURVE ( 'NONE', #250, #250, #178, .T. ) ;
#41 = ORIENTED_EDGE ( 'NONE', *, *, #123, .F. ) ;
#42 = APPLICATION_CONTEXT ( 'configuration controlled 3d designs of mechanical parts and assemblies' ) ;
#43 = DIRECTION ( 'NONE',  ( -3.491481338843133355E-15, 1.224646799147353207E-16, -1.000000000000000000 ) ) ;
#44 = DIRECTION ( 'NONE',  ( -3.491481338843133355E-15, 4.327174794786742882E-16, -1.000000000000000000 ) ) ;
#45 = DIRECTION ( 'NONE',  ( -3.491481338843133355E-15, 1.224646799147353207E-16, -1.000000000000000000 ) ) ;
#46 = EDGE_LOOP ( 'NONE', ( #217 ) ) ;
#47 = DIRECTION ( 'NONE',  ( 0.0000000000000000000, 1.000000000000000000, 0.0000000000000000000 ) ) ;
#48 = CARTESIAN_POINT ( 'NONE',  ( 2.304377683636468267E-13, 4.399999999999992362, 66.00000000000000000 ) ) ;
#49 = ADVANCED_FACE ( 'NONE', ( #25 ), #110, .T. ) ;
#50 = EDGE_CURVE ( 'NONE', #12, #12, #5, .T. ) ;
#51 = CALENDAR_DATE ( 2021, 13, 10 ) ;
#52 = CALENDAR_DATE ( 2021, 13, 10 ) ;
#53 = APPROVAL_STATUS ( 'not_yet_approved' ) ;
#54 = EDGE_LOOP ( 'NONE', ( #160 ) ) ;
#55 = AXIS2_PLACEMENT_3D ( 'NONE', #201, #220, #167 ) ;
#56 = CC_DESIGN_PERSON_AND_ORGANIZATION_ASSIGNMENT ( #214, #194, ( #145 ) ) ;
#57 = ORIENTED_EDGE ( 'NONE', *, *, #216, .T. ) ;
#58 = DESIGN_CONTEXT ( 'detailed design', #42, 'design' ) ;
#59 = AXIS2_PLACEMENT_3D ( 'NONE', #207, #129, #149 ) ;
#60 = DIRECTION ( 'NONE',  ( -3.491481338843133355E-15, 4.327174794786742882E-16, -1.000000000000000000 ) ) ;
#61 = FACE_OUTER_BOUND ( 'NONE', #134, .T. ) ;
#62 = FACE_OUTER_BOUND ( 'NONE', #46, .T. ) ;
#63 = DIRECTION ( 'NONE',  ( 0.0000000000000000000, 1.000000000000000000, 0.0000000000000000000 ) ) ;
#64 = CARTESIAN_POINT ( 'NONE',  ( 2.304377683636468267E-13, -2.855935364559250302E-14, 66.00000000000000000 ) ) ;
#65 = FACE_BOUND ( 'NONE', #173, .T. ) ;
#66 = CARTESIAN_POINT ( 'NONE',  ( 2.321835090330683366E-13, 4.533974596215554875, 66.50000000000000000 ) ) ;
#67 = CONICAL_SURFACE ( 'NONE', #249, 4.000000000000002665, 0.7853981633974479459 ) ;
#68 = VERTEX_POINT ( 'NONE', #90 ) ;
#69 = FACE_OUTER_BOUND ( 'NONE', #75, .T. ) ;
#70 = FACE_OUTER_BOUND ( 'NONE', #239, .T. ) ;
#71 = CIRCLE ( 'NONE', #150, 4.000000000000002665 ) ;
#72 = SHAPE_DEFINITION_REPRESENTATION ( #11, #232 ) ;
#73 = PERSON_AND_ORGANIZATION ( #197, #24 ) ;
#74 = DATE_AND_TIME ( #38, #202 ) ;
#75 = EDGE_LOOP ( 'NONE', ( #258 ) ) ;
#76 = DATE_AND_TIME ( #52, #88 ) ;
#77 =( GEOMETRIC_REPRESENTATION_CONTEXT ( 3 ) GLOBAL_UNCERTAINTY_ASSIGNED_CONTEXT ( ( #99 ) ) GLOBAL_UNIT_ASSIGNED_CONTEXT ( ( #230, #89, #128 ) ) REPRESENTATION_CONTEXT ( 'NONE', 'WORKASPACE' ) );
#78 = EDGE_CURVE ( 'NONE', #125, #125, #193, .T. ) ;
#79 = ORIENTED_EDGE ( 'NONE', *, *, #216, .F. ) ;
#80 = CARTESIAN_POINT ( 'NONE',  ( 2.304377683636468267E-13, -2.862293735361731706E-14, 66.00000000000000000 ) ) ;
#81 = CYLINDRICAL_SURFACE ( 'NONE', #254, 4.400000000000011013 ) ;
#82 = EDGE_LOOP ( 'NONE', ( #119 ) ) ;
#83 = CARTESIAN_POINT ( 'NONE',  ( 1.997127325818272279E-13, -2.475143982618017118E-14, 57.20000000000000284 ) ) ;
#84 = DIRECTION ( 'NONE',  ( 0.0000000000000000000, 1.000000000000000000, 0.0000000000000000000 ) ) ;
#85 = ADVANCED_FACE ( 'NONE', ( #225, #1 ), #187, .F. ) ;
#86 = APPLICATION_PROTOCOL_DEFINITION ( 'international standard', 'config_control_design', 1994, #126 ) ;
#87 = FACE_OUTER_BOUND ( 'NONE', #259, .T. ) ;
#88 = LOCAL_TIME ( 14, 57, 18.00000000000000000, #234 ) ;
#89 =( NAMED_UNIT ( * ) PLANE_ANGLE_UNIT ( ) SI_UNIT ( $, .RADIAN. ) );
#90 = CARTESIAN_POINT ( 'NONE',  ( 1.997127325818272279E-13, -4.400000000000035882, 57.20000000000000284 ) ) ;
#91 = CALENDAR_DATE ( 2021, 13, 10 ) ;
#92 = EDGE_LOOP ( 'NONE', ( #41 ) ) ;
#93 = AXIS2_PLACEMENT_3D ( 'NONE', #183, #221, #182 ) ;
#94 = PERSON_AND_ORGANIZATION ( #197, #24 ) ;
#95 = ORIENTED_EDGE ( 'NONE', *, *, #78, .T. ) ;
#96 = ORIENTED_EDGE ( 'NONE', *, *, #50, .T. ) ;
#97 = EDGE_CURVE ( 'NONE', #188, #188, #71, .T. ) ;
#98 = AXIS2_PLACEMENT_3D ( 'NONE', #247, #177, #203 ) ;
#99 = UNCERTAINTY_MEASURE_WITH_UNIT (LENGTH_MEASURE( 1.000000000000000082E-05 ), #230, 'distance_accuracy_value', 'NONE');
#100 = DIRECTION ( 'NONE',  ( 1.510825004591027679E-30, 1.000000000000000000, 4.327174794786742882E-16 ) ) ;
#101 = FACE_OUTER_BOUND ( 'NONE', #155, .T. ) ;
#102 = AXIS2_PLACEMENT_3D ( 'NONE', #108, #209, #189 ) ;
#103 = CARTESIAN_POINT ( 'NONE',  ( 2.350017618123109637E-13, -2.912499314063774691E-14, 67.30717967697241022 ) ) ;
#104 = DIRECTION ( 'NONE',  ( 0.0000000000000000000, 1.000000000000000000, 0.0000000000000000000 ) ) ;
#105 = DIRECTION ( 'NONE',  ( -3.491481338843133355E-15, 4.327174794786742882E-16, -1.000000000000000000 ) ) ;
#106 = CC_DESIGN_PERSON_AND_ORGANIZATION_ASSIGNMENT ( #8, #252, ( #248 ) ) ;
#107 = CARTESIAN_POINT ( 'NONE',  ( 1.997127325818272279E-13, -4.400000000000035882, 57.20000000000000284 ) ) ;
#108 = CARTESIAN_POINT ( 'NONE',  ( 4.085033166446465899E-13, -1.432836755002403127E-14, 117.0000000000000000 ) ) ;
#109 = DIRECTION ( 'NONE',  ( -4.275831445896958607E-31, -1.000000000000000000, -1.224646799147353207E-16 ) ) ;
#110 = CONICAL_SURFACE ( 'NONE', #93, 4.999999999999987566, 1.221730476396026610 ) ;
#111 = CARTESIAN_POINT ( 'NONE',  ( 1.997127325818272279E-13, 3.749399456654630335E-32, 57.20000000000000284 ) ) ;
#112 = APPROVAL_ROLE ( '' ) ;
#113 = APPROVAL_ROLE ( '' ) ;
#114 = ORIENTED_EDGE ( 'NONE', *, *, #40, .F. ) ;
#115 = MANIFOLD_SOLID_BREP ( 'Corps-Déplacer/Copier1[1]', #30 ) ;
#116 = APPROVAL_PERSON_ORGANIZATION ( #29, #33, #113 ) ;
#117 = COORDINATED_UNIVERSAL_TIME_OFFSET ( 1, 0, .AHEAD. ) ;
#118 = EDGE_CURVE ( 'NONE', #208, #208, #260, .T. ) ;
#119 = ORIENTED_EDGE ( 'NONE', *, *, #97, .F. ) ;
#120 = ADVANCED_FACE ( 'NONE', ( #181 ), #219, .F. ) ;
#121 = CYLINDRICAL_SURFACE ( 'NONE', #6, 4.400000000000011013 ) ;
#122 = DIRECTION ( 'NONE',  ( 1.510825004591027679E-30, 1.000000000000000000, 4.327174794786742389E-16 ) ) ;
#123 = EDGE_CURVE ( 'NONE', #227, #227, #127, .T. ) ;
#124 = CARTESIAN_POINT ( 'NONE',  ( 0.0000000000000000000, 0.0000000000000000000, 0.0000000000000000000 ) ) ;
#125 = VERTEX_POINT ( 'NONE', #107 ) ;
#126 = APPLICATION_CONTEXT ( 'configuration controlled 3d designs of mechanical parts and assemblies' ) ;
#127 = CIRCLE ( 'NONE', #175, 4.400000000000020783 ) ;
#128 =( NAMED_UNIT ( * ) SI_UNIT ( $, .STERADIAN. ) SOLID_ANGLE_UNIT ( ) );
#129 = DIRECTION ( 'NONE',  ( 0.0000000000000000000, 0.0000000000000000000, 1.000000000000000000 ) ) ;
#130 = APPROVAL_PERSON_ORGANIZATION ( #133, #28, #112 ) ;
#131 = CC_DESIGN_DATE_AND_TIME_ASSIGNMENT ( #210, #34, ( #206 ) ) ;
#132 = CALENDAR_DATE ( 2021, 13, 10 ) ;
#133 = PERSON_AND_ORGANIZATION ( #197, #24 ) ;
#134 = EDGE_LOOP ( 'NONE', ( #142 ) ) ;
#135 = APPROVAL_DATE_TIME ( #192, #33 ) ;
#136 = LOCAL_TIME ( 14, 57, 18.00000000000000000, #257 ) ;
#137 = PRODUCT_DEFINITION ( 'UNKNOWN', '', #145, #58 ) ;
#138 = DIRECTION ( 'NONE',  ( -3.491481338843133355E-15, 1.224646799147353207E-16, -1.000000000000000000 ) ) ;
#139 = DIRECTION ( 'NONE',  ( 1.510825004591027679E-30, 1.000000000000000000, 4.327174794786742389E-16 ) ) ;
#140 = CLOSED_SHELL ( 'NONE', ( #49, #168, #242 ) ) ;
#141 = DIRECTION ( 'NONE',  ( -3.491481338843133355E-15, 4.327174794786742882E-16, -1.000000000000000000 ) ) ;
#142 = ORIENTED_EDGE ( 'NONE', *, *, #233, .T. ) ;
#143 = DIRECTION ( 'NONE',  ( 4.275831445896958607E-31, 1.000000000000000000, 1.224646799147353207E-16 ) ) ;
#144 = DIRECTION ( 'NONE',  ( 0.0000000000000000000, -1.000000000000000000, 0.0000000000000000000 ) ) ;
#145 = PRODUCT_DEFINITION_FORMATION_WITH_SPECIFIED_SOURCE ( 'ANY', '', #248, .NOT_KNOWN. ) ;
#146 = CARTESIAN_POINT ( 'NONE',  ( 4.085033166446465899E-13, 4.999999999999987566, 117.0000000000000000 ) ) ;
#147 = CARTESIAN_POINT ( 'NONE',  ( 2.380254733485885438E-13, -2.949973747052786673E-14, 68.17320508075688679 ) ) ;
#148 = CC_DESIGN_DATE_AND_TIME_ASSIGNMENT ( #74, #153, ( #137 ) ) ;
#149 = DIRECTION ( 'NONE',  ( 1.000000000000000000, 0.0000000000000000000, 0.0000000000000000000 ) ) ;
#150 = AXIS2_PLACEMENT_3D ( 'NONE', #157, #138, #84 ) ;
#151 = AXIS2_PLACEMENT_3D ( 'NONE', #261, #60, #63 ) ;
#152 = APPROVAL_ROLE ( '' ) ;
#153 = DATE_TIME_ROLE ( 'creation_date' ) ;
#154 = EDGE_LOOP ( 'NONE', ( #96 ) ) ;
#155 = EDGE_LOOP ( 'NONE', ( #57 ) ) ;
#156 = ADVANCED_FACE ( 'NONE', ( #21, #61 ), #240, .T. ) ;
#157 = CARTESIAN_POINT ( 'NONE',  ( 4.119947979834897107E-13, -1.445083222993876641E-14, 118.0000000000000000 ) ) ;
#158 = AXIS2_PLACEMENT_3D ( 'NONE', #83, #43, #26 ) ;
#159 = CARTESIAN_POINT ( 'NONE',  ( 0.0000000000000000000, 0.0000000000000000000, 0.0000000000000000000 ) ) ;
#160 = ORIENTED_EDGE ( 'NONE', *, *, #123, .T. ) ;
#161 = CARTESIAN_POINT ( 'NONE',  ( 0.0000000000000000000, 0.0000000000000000000, 0.0000000000000000000 ) ) ;
#162 = CARTESIAN_POINT ( 'NONE',  ( 5.591499235673246615E-15, -1.961233922467705469E-16, 1.601469030771315083 ) ) ;
#163 = MECHANICAL_CONTEXT ( 'NONE', #126, 'mechanical' ) ;
#164 = APPLICATION_PROTOCOL_DEFINITION ( 'international standard', 'config_control_design', 1994, #42 ) ;
#165 = APPROVAL_PERSON_ORGANIZATION ( #190, #238, #152 ) ;
#166 = DIRECTION ( 'NONE',  ( 3.491481338843133355E-15, -1.224646799147353207E-16, 1.000000000000000000 ) ) ;
#167 = DIRECTION ( 'NONE',  ( 0.0000000000000000000, -1.000000000000000000, 0.0000000000000000000 ) ) ;
#168 = ADVANCED_FACE ( 'NONE', ( #101, #262 ), #81, .T. ) ;
#169 = DIRECTION ( 'NONE',  ( -3.491481338843133355E-15, 1.224646799147353207E-16, -1.000000000000000000 ) ) ;
#170 = SECURITY_CLASSIFICATION_LEVEL ( 'unclassified' ) ;
#171 = CIRCLE ( 'NONE', #55, 4.400000000000011013 ) ;
#172 = PERSON_AND_ORGANIZATION_ROLE ( 'creator' ) ;
#173 = EDGE_LOOP ( 'NONE', ( #114 ) ) ;
#174 = EDGE_LOOP ( 'NONE', ( #95 ) ) ;
#175 = AXIS2_PLACEMENT_3D ( 'NONE', #64, #44, #104 ) ;
#176 = CC_DESIGN_PERSON_AND_ORGANIZATION_ASSIGNMENT ( #18, #231, ( #206 ) ) ;
#177 = DIRECTION ( 'NONE',  ( 3.491481338843133355E-15, -1.224646799147353207E-16, 1.000000000000000000 ) ) ;
#178 = CIRCLE ( 'NONE', #151, 4.533974596215583297 ) ;
#179 = CARTESIAN_POINT ( 'NONE',  ( 4.119947979834897107E-13, 2.999519565323694963E-32, 118.0000000000000000 ) ) ;
#180 = LOCAL_TIME ( 14, 57, 18.00000000000000000, #255 ) ;
#181 = FACE_OUTER_BOUND ( 'NONE', #174, .T. ) ;
#182 = DIRECTION ( 'NONE',  ( -4.622231866529377433E-31, -1.000000000000000000, -1.301042606982608526E-16 ) ) ;
#183 = CARTESIAN_POINT ( 'NONE',  ( 6.353976404174112936E-15, -2.228674911895109038E-16, 1.819851171331031026 ) ) ;
#184 = CIRCLE ( 'NONE', #102, 5.000000000000002665 ) ;
#185 = CARTESIAN_POINT ( 'NONE',  ( 4.119947979834897107E-13, -1.445083222993876641E-14, 118.0000000000000000 ) ) ;
#186 = APPROVAL_STATUS ( 'not_yet_approved' ) ;
#187 = TOROIDAL_SURFACE ( 'NONE', #37, 5.400000000000021672, 1.000000000000000000 ) ;
#188 = VERTEX_POINT ( 'NONE', #229 ) ;
#189 = DIRECTION ( 'NONE',  ( 0.0000000000000000000, 1.000000000000000000, 0.0000000000000000000 ) ) ;
#190 = PERSON_AND_ORGANIZATION ( #197, #24 ) ;
#191 = ORIENTED_EDGE ( 'NONE', *, *, #40, .T. ) ;
#192 = DATE_AND_TIME ( #91, #136 ) ;
#193 = CIRCLE ( 'NONE', #158, 4.400000000000011013 ) ;
#194 = PERSON_AND_ORGANIZATION_ROLE ( 'design_supplier' ) ;
#195 = EDGE_LOOP ( 'NONE', ( #19 ) ) ;
#196 = CC_DESIGN_PERSON_AND_ORGANIZATION_ASSIGNMENT ( #94, #211, ( #137 ) ) ;
#197 = PERSON ( 'UNSPECIFIED', 'UNSPECIFIED', 'UNSPECIFIED', ('UNSPECIFIED'), ('UNSPECIFIED'), ('UNSPECIFIED') ) ;
#198 = PLANE ( 'NONE',  #226 ) ;
#199 = DIRECTION ( 'NONE',  ( -3.491481338843133355E-15, 1.224646799147353207E-16, -1.000000000000000000 ) ) ;
#200 = MANIFOLD_SOLID_BREP ( 'Corps-Déplacer/Copier1[2]', #140 ) ;
#201 = CARTESIAN_POINT ( 'NONE',  ( 1.997127325818272279E-13, -2.475143982618017118E-14, 57.20000000000000284 ) ) ;
#202 = LOCAL_TIME ( 14, 57, 18.00000000000000000, #235 ) ;
#203 = DIRECTION ( 'NONE',  ( -4.275831445896958607E-31, -1.000000000000000000, -1.224646799147353207E-16 ) ) ;
#204 = DIRECTION ( 'NONE',  ( 0.0000000000000000000, -1.000000000000000000, 0.0000000000000000000 ) ) ;
#205 = CARTESIAN_POINT ( 'NONE',  ( 5.591499235673245038E-15, -4.400000000000011013, 1.601469030771314639 ) ) ;
#206 = SECURITY_CLASSIFICATION ( '', '', #170 ) ;
#207 = CARTESIAN_POINT ( 'NONE',  ( 0.0000000000000000000, 0.0000000000000000000, 0.0000000000000000000 ) ) ;
#208 = VERTEX_POINT ( 'NONE', #205 ) ;
#209 = DIRECTION ( 'NONE',  ( -3.491481338843133355E-15, 1.224646799147353207E-16, -1.000000000000000000 ) ) ;
#210 = DATE_AND_TIME ( #132, #180 ) ;
#211 = PERSON_AND_ORGANIZATION_ROLE ( 'creator' ) ;
#212 = EDGE_LOOP ( 'NONE', ( #191 ) ) ;
#213 = APPROVAL_DATE_TIME ( #76, #238 ) ;
#214 = PERSON_AND_ORGANIZATION ( #197, #24 ) ;
#215 = CONICAL_SURFACE ( 'NONE', #32, 5.500000000000023981, 0.5235987755983005920 ) ;
#216 = EDGE_CURVE ( 'NONE', #68, #68, #171, .T. ) ;
#217 = ORIENTED_EDGE ( 'NONE', *, *, #78, .F. ) ;
#218 = AXIS2_PLACEMENT_3D ( 'NONE', #161, #199, #23 ) ;
#219 = PLANE ( 'NONE',  #98 ) ;
#220 = DIRECTION ( 'NONE',  ( -3.491481338843133355E-15, 1.224646799147353207E-16, -1.000000000000000000 ) ) ;
#221 = DIRECTION ( 'NONE',  ( 3.491481338843133355E-15, -1.224646799147353207E-16, 1.000000000000000000 ) ) ;
#222 = CC_DESIGN_SECURITY_CLASSIFICATION ( #206, ( #145 ) ) ;
#223 = FACE_OUTER_BOUND ( 'NONE', #82, .T. ) ;
#224 = ADVANCED_FACE ( 'NONE', ( #70, #31 ), #67, .T. ) ;
#225 = FACE_OUTER_BOUND ( 'NONE', #92, .T. ) ;
#226 = AXIS2_PLACEMENT_3D ( 'NONE', #179, #244, #143 ) ;
#227 = VERTEX_POINT ( 'NONE', #48 ) ;
#228 = AXIS2_PLACEMENT_3D ( 'NONE', #111, #166, #109 ) ;
#229 = CARTESIAN_POINT ( 'NONE',  ( 4.119947979834897107E-13, 3.999999999999988010, 118.0000000000000000 ) ) ;
#230 =( LENGTH_UNIT ( ) NAMED_UNIT ( * ) SI_UNIT ( .MILLI., .METRE. ) );
#231 = PERSON_AND_ORGANIZATION_ROLE ( 'classification_officer' ) ;
#232 = ADVANCED_BREP_SHAPE_REPRESENTATION ( '960190', ( #115, #200, #59 ), #77 ) ;
#233 = EDGE_CURVE ( 'NONE', #251, #251, #184, .T. ) ;
#234 = COORDINATED_UNIVERSAL_TIME_OFFSET ( 1, 0, .AHEAD. ) ;
#235 = COORDINATED_UNIVERSAL_TIME_OFFSET ( 1, 0, .AHEAD. ) ;
#236 = EDGE_LOOP ( 'NONE', ( #20 ) ) ;
#237 = CC_DESIGN_APPROVAL ( #238, ( #206 ) ) ;
#238 = APPROVAL ( #14, 'UNSPECIFIED' ) ;
#239 = EDGE_LOOP ( 'NONE', ( #256 ) ) ;
#240 = CYLINDRICAL_SURFACE ( 'NONE', #218, 4.999999999999999112 ) ;
#241 = AXIS2_PLACEMENT_3D ( 'NONE', #162, #45, #2 ) ;
#242 = ADVANCED_FACE ( 'NONE', ( #87 ), #10, .T. ) ;
#243 = DIRECTION ( 'NONE',  ( -3.491481338843133355E-15, 4.327174794786742882E-16, -1.000000000000000000 ) ) ;
#244 = DIRECTION ( 'NONE',  ( -3.491481338843133355E-15, 1.224646799147353207E-16, -1.000000000000000000 ) ) ;
#245 = FACE_OUTER_BOUND ( 'NONE', #54, .T. ) ;
#246 = ADVANCED_FACE ( 'NONE', ( #65, #69 ), #215, .T. ) ;
#247 = CARTESIAN_POINT ( 'NONE',  ( 1.997127325818272279E-13, 3.749399456654630335E-32, 57.20000000000000284 ) ) ;
#248 = PRODUCT ( '960190', '960190', '', ( #163 ) ) ;
#249 = AXIS2_PLACEMENT_3D ( 'NONE', #185, #169, #47 ) ;
#250 = VERTEX_POINT ( 'NONE', #66 ) ;
#251 = VERTEX_POINT ( 'NONE', #146 ) ;
#252 = PERSON_AND_ORGANIZATION_ROLE ( 'design_owner' ) ;
#253 = PRODUCT_RELATED_PRODUCT_CATEGORY ( 'detail', '', ( #248 ) ) ;
#254 = AXIS2_PLACEMENT_3D ( 'NONE', #159, #243, #139 ) ;
#255 = COORDINATED_UNIVERSAL_TIME_OFFSET ( 1, 0, .AHEAD. ) ;
#256 = ORIENTED_EDGE ( 'NONE', *, *, #233, .F. ) ;
#257 = COORDINATED_UNIVERSAL_TIME_OFFSET ( 1, 0, .AHEAD. ) ;
#258 = ORIENTED_EDGE ( 'NONE', *, *, #50, .F. ) ;
#259 = EDGE_LOOP ( 'NONE', ( #79 ) ) ;
#260 = CIRCLE ( 'NONE', #241, 4.400000000000011013 ) ;
#261 = CARTESIAN_POINT ( 'NONE',  ( 2.321835090330683366E-13, -2.877571238533184490E-14, 66.50000000000000000 ) ) ;
#262 = FACE_OUTER_BOUND ( 'NONE', #236, .T. ) ;
#263 = CC_DESIGN_APPROVAL ( #33, ( #137 ) ) ;
ENDSEC;
END-ISO-10303-21;
