ISO-10303-21;
HEADER;
FILE_DESCRIPTION (( 'STEP AP203' ),
    '1' );
FILE_NAME ('960189.step',
    '2021-10-13T12:57:17',
    ( '' ),
    ( '' ),
    'SwSTEP 2.0',
    'SolidWorks 2019',
    '' );
FILE_SCHEMA (( 'CONFIG_CONTROL_DESIGN' ));
ENDSEC;

DATA;
#1 = AXIS2_PLACEMENT_3D ( 'NONE', #85, #232, #234 ) ;
#2 = CARTESIAN_POINT ( 'NONE',  ( 2.245022500876134558E-13, 4.383974596215554520, 64.29999999999999716 ) ) ;
#3 = CC_DESIGN_APPROVAL ( #78, ( #178 ) ) ;
#4 = VERTEX_POINT ( 'NONE', #126 ) ;
#5 = CC_DESIGN_DATE_AND_TIME_ASSIGNMENT ( #138, #153, ( #105 ) ) ;
#6 = DIRECTION ( 'NONE',  ( 0.0000000000000000000, 1.000000000000000000, 0.0000000000000000000 ) ) ;
#7 = AXIS2_PLACEMENT_3D ( 'NONE', #62, #89, #113 ) ;
#8 = CARTESIAN_POINT ( 'NONE',  ( 4.119947979834897107E-13, 3.999999999999988010, 118.0000000000000000 ) ) ;
#9 = CARTESIAN_POINT ( 'NONE',  ( 4.119947979834897107E-13, -1.445083222993876641E-14, 118.0000000000000000 ) ) ;
#10 = SHAPE_DEFINITION_REPRESENTATION ( #79, #88 ) ;
#11 = ORIENTED_EDGE ( 'NONE', *, *, #220, .F. ) ;
#12 = LOCAL_TIME ( 14, 57, 17.00000000000000000, #27 ) ;
#13 = ORIENTED_EDGE ( 'NONE', *, *, #175, .T. ) ;
#14 = ORIENTED_EDGE ( 'NONE', *, *, #39, .F. ) ;
#15 = FACE_OUTER_BOUND ( 'NONE', #33, .T. ) ;
#16 = UNCERTAINTY_MEASURE_WITH_UNIT (LENGTH_MEASURE( 1.000000000000000082E-05 ), #251, 'distance_accuracy_value', 'NONE');
#17 = ADVANCED_FACE ( 'NONE', ( #49, #130 ), #25, .T. ) ;
#18 = CARTESIAN_POINT ( 'NONE',  ( 0.0000000000000000000, 0.0000000000000000000, 0.0000000000000000000 ) ) ;
#19 = CONICAL_SURFACE ( 'NONE', #56, 4.000000000000002665, 0.7853981633974479459 ) ;
#20 = PERSON_AND_ORGANIZATION ( #38, #193 ) ;
#21 = COORDINATED_UNIVERSAL_TIME_OFFSET ( 1, 0, .AHEAD. ) ;
#22 = ADVANCED_FACE ( 'NONE', ( #204, #244 ), #19, .T. ) ;
#23 = FACE_OUTER_BOUND ( 'NONE', #95, .T. ) ;
#24 = ORIENTED_EDGE ( 'NONE', *, *, #58, .T. ) ;
#25 = CYLINDRICAL_SURFACE ( 'NONE', #148, 4.250000000000010658 ) ;
#26 = DIRECTION ( 'NONE',  ( 3.491481338843133355E-15, -1.224646799147353207E-16, 1.000000000000000000 ) ) ;
#27 = COORDINATED_UNIVERSAL_TIME_OFFSET ( 1, 0, .AHEAD. ) ;
#28 = DIRECTION ( 'NONE',  ( 0.0000000000000000000, -1.000000000000000000, 0.0000000000000000000 ) ) ;
#29 = LOCAL_TIME ( 14, 57, 17.00000000000000000, #252 ) ;
#30 = APPROVAL_DATE_TIME ( #253, #205 ) ;
#31 = ORIENTED_EDGE ( 'NONE', *, *, #247, .F. ) ;
#32 = COORDINATED_UNIVERSAL_TIME_OFFSET ( 1, 0, .AHEAD. ) ;
#33 = EDGE_LOOP ( 'NONE', ( #51 ) ) ;
#34 = APPROVAL_ROLE ( '' ) ;
#35 = DIRECTION ( 'NONE',  ( 1.510825004591027855E-30, 1.000000000000000000, 4.327174794786743375E-16 ) ) ;
#36 = DIRECTION ( 'NONE',  ( 1.510825004591027855E-30, 1.000000000000000000, 4.327174794786743375E-16 ) ) ;
#37 = EDGE_CURVE ( 'NONE', #145, #145, #141, .T. ) ;
#38 = PERSON ( 'UNSPECIFIED', 'UNSPECIFIED', 'UNSPECIFIED', ('UNSPECIFIED'), ('UNSPECIFIED'), ('UNSPECIFIED') ) ;
#39 = EDGE_CURVE ( 'NONE', #4, #4, #192, .T. ) ;
#40 = CC_DESIGN_SECURITY_CLASSIFICATION ( #183, ( #178 ) ) ;
#41 =( NAMED_UNIT ( * ) PLANE_ANGLE_UNIT ( ) SI_UNIT ( $, .RADIAN. ) );
#42 = CARTESIAN_POINT ( 'NONE',  ( 2.282276163277392712E-13, -2.828543798475169374E-14, 65.36698729810773045 ) ) ;
#43 = DIRECTION ( 'NONE',  ( -3.491481338843133355E-15, 4.327174794786742882E-16, -1.000000000000000000 ) ) ;
#44 = CIRCLE ( 'NONE', #65, 4.250000000000010658 ) ;
#45 = APPROVAL_ROLE ( '' ) ;
#46 = CARTESIAN_POINT ( 'NONE',  ( 4.119947979834897107E-13, -1.445083222993876641E-14, 118.0000000000000000 ) ) ;
#47 = FACE_OUTER_BOUND ( 'NONE', #198, .T. ) ;
#48 = DIRECTION ( 'NONE',  ( -3.491481338843133355E-15, 1.224646799147353207E-16, -1.000000000000000000 ) ) ;
#49 = FACE_OUTER_BOUND ( 'NONE', #137, .T. ) ;
#50 = PRODUCT ( '960189', '960189', '', ( #142 ) ) ;
#51 = ORIENTED_EDGE ( 'NONE', *, *, #39, .T. ) ;
#52 = CALENDAR_DATE ( 2021, 13, 10 ) ;
#53 = CALENDAR_DATE ( 2021, 13, 10 ) ;
#54 = PLANE ( 'NONE',  #226 ) ;
#55 = COORDINATED_UNIVERSAL_TIME_OFFSET ( 1, 0, .AHEAD. ) ;
#56 = AXIS2_PLACEMENT_3D ( 'NONE', #46, #93, #108 ) ;
#57 = PRODUCT_RELATED_PRODUCT_CATEGORY ( 'detail', '', ( #50 ) ) ;
#58 = EDGE_CURVE ( 'NONE', #106, #106, #44, .T. ) ;
#59 = FACE_OUTER_BOUND ( 'NONE', #260, .T. ) ;
#60 = CARTESIAN_POINT ( 'NONE',  ( 2.227565094181918954E-13, -2.760737519073941769E-14, 63.79999999999999716 ) ) ;
#61 = CC_DESIGN_PERSON_AND_ORGANIZATION_ASSIGNMENT ( #135, #222, ( #183 ) ) ;
#62 = CARTESIAN_POINT ( 'NONE',  ( 2.312513278640168512E-13, -2.866018231464181040E-14, 66.23301270189220702 ) ) ;
#63 = VERTEX_POINT ( 'NONE', #157 ) ;
#64 = ORIENTED_EDGE ( 'NONE', *, *, #37, .T. ) ;
#65 = AXIS2_PLACEMENT_3D ( 'NONE', #217, #213, #116 ) ;
#66 = DIRECTION ( 'NONE',  ( -3.491481338843133355E-15, 1.224646799147353207E-16, -1.000000000000000000 ) ) ;
#67 = TOROIDAL_SURFACE ( 'NONE', #258, 5.250000000000020428, 0.9999999999999991118 ) ;
#68 = DIRECTION ( 'NONE',  ( 3.491481338843133355E-15, -1.224646799147353207E-16, 1.000000000000000000 ) ) ;
#69 = CIRCLE ( 'NONE', #1, 4.250000000000010658 ) ;
#70 = FACE_OUTER_BOUND ( 'NONE', #174, .T. ) ;
#71 = AXIS2_PLACEMENT_3D ( 'NONE', #42, #206, #125 ) ;
#72 = ORIENTED_EDGE ( 'NONE', *, *, #139, .F. ) ;
#73 = CC_DESIGN_PERSON_AND_ORGANIZATION_ASSIGNMENT ( #20, #144, ( #50 ) ) ;
#74 = CC_DESIGN_APPROVAL ( #154, ( #105 ) ) ;
#75 = ADVANCED_FACE ( 'NONE', ( #199 ), #168, .F. ) ;
#76 = DIRECTION ( 'NONE',  ( -3.491481338843133355E-15, 4.327174794786742882E-16, -1.000000000000000000 ) ) ;
#77 = APPLICATION_CONTEXT ( 'configuration controlled 3d designs of mechanical parts and assemblies' ) ;
#78 = APPROVAL ( #151, 'UNSPECIFIED' ) ;
#79 = PRODUCT_DEFINITION_SHAPE ( 'NONE', 'NONE',  #105 ) ;
#80 = AXIS2_PLACEMENT_3D ( 'NONE', #254, #66, #190 ) ;
#81 = CIRCLE ( 'NONE', #245, 4.383974596215582942 ) ;
#82 = DIRECTION ( 'NONE',  ( -3.491481338843133355E-15, 4.327174794786742882E-16, -1.000000000000000000 ) ) ;
#83 = DIRECTION ( 'NONE',  ( 0.0000000000000000000, 1.000000000000000000, 0.0000000000000000000 ) ) ;
#84 = APPROVAL_PERSON_ORGANIZATION ( #225, #78, #34 ) ;
#85 = CARTESIAN_POINT ( 'NONE',  ( 1.930789180380252430E-13, -2.392927661517068467E-14, 55.29999999999999716 ) ) ;
#86 = CARTESIAN_POINT ( 'NONE',  ( 1.930789180380252430E-13, -4.250000000000034639, 55.29999999999999716 ) ) ;
#87 = ADVANCED_FACE ( 'NONE', ( #15, #101 ), #179, .T. ) ;
#88 = ADVANCED_BREP_SHAPE_REPRESENTATION ( '960189', ( #173, #94, #162 ), #92 ) ;
#89 = DIRECTION ( 'NONE',  ( 3.491481338843133355E-15, -4.327174794786742882E-16, 1.000000000000000000 ) ) ;
#90 = AXIS2_PLACEMENT_3D ( 'NONE', #169, #146, #28 ) ;
#91 = APPLICATION_PROTOCOL_DEFINITION ( 'international standard', 'config_control_design', 1994, #115 ) ;
#92 =( GEOMETRIC_REPRESENTATION_CONTEXT ( 3 ) GLOBAL_UNCERTAINTY_ASSIGNED_CONTEXT ( ( #16 ) ) GLOBAL_UNIT_ASSIGNED_CONTEXT ( ( #251, #41, #110 ) ) REPRESENTATION_CONTEXT ( 'NONE', 'WORKASPACE' ) );
#93 = DIRECTION ( 'NONE',  ( -3.491481338843133355E-15, 1.224646799147353207E-16, -1.000000000000000000 ) ) ;
#94 = MANIFOLD_SOLID_BREP ( 'Corps-Déplacer/Copier1[2]', #100 ) ;
#95 = EDGE_LOOP ( 'NONE', ( #98 ) ) ;
#96 = CARTESIAN_POINT ( 'NONE',  ( 0.0000000000000000000, 0.0000000000000000000, 0.0000000000000000000 ) ) ;
#97 = ORIENTED_EDGE ( 'NONE', *, *, #139, .T. ) ;
#98 = ORIENTED_EDGE ( 'NONE', *, *, #175, .F. ) ;
#99 = APPROVAL_DATE_TIME ( #203, #154 ) ;
#100 = CLOSED_SHELL ( 'NONE', ( #212, #87, #185 ) ) ;
#101 = FACE_OUTER_BOUND ( 'NONE', #221, .T. ) ;
#102 = AXIS2_PLACEMENT_3D ( 'NONE', #207, #143, #104 ) ;
#103 = DIRECTION ( 'NONE',  ( 0.0000000000000000000, 0.0000000000000000000, 1.000000000000000000 ) ) ;
#104 = DIRECTION ( 'NONE',  ( 4.275831445896958607E-31, 1.000000000000000000, 1.224646799147353207E-16 ) ) ;
#105 = PRODUCT_DEFINITION ( 'UNKNOWN', '', #178, #182 ) ;
#106 = VERTEX_POINT ( 'NONE', #159 ) ;
#107 = AXIS2_PLACEMENT_3D ( 'NONE', #60, #43, #83 ) ;
#108 = DIRECTION ( 'NONE',  ( 0.0000000000000000000, 1.000000000000000000, 0.0000000000000000000 ) ) ;
#109 = DIRECTION ( 'NONE',  ( -4.275831445896958607E-31, -1.000000000000000000, -1.224646799147353207E-16 ) ) ;
#110 =( NAMED_UNIT ( * ) SI_UNIT ( $, .STERADIAN. ) SOLID_ANGLE_UNIT ( ) );
#111 = CC_DESIGN_APPROVAL ( #205, ( #183 ) ) ;
#112 = FACE_OUTER_BOUND ( 'NONE', #114, .T. ) ;
#113 = DIRECTION ( 'NONE',  ( 0.0000000000000000000, -1.000000000000000000, 0.0000000000000000000 ) ) ;
#114 = EDGE_LOOP ( 'NONE', ( #24 ) ) ;
#115 = APPLICATION_CONTEXT ( 'configuration controlled 3d designs of mechanical parts and assemblies' ) ;
#116 = DIRECTION ( 'NONE',  ( -3.625279895317140903E-31, -1.000000000000000000, -1.020425574104001657E-16 ) ) ;
#117 = AXIS2_PLACEMENT_3D ( 'NONE', #257, #68, #109 ) ;
#118 = APPROVAL_STATUS ( 'not_yet_approved' ) ;
#119 = PERSON_AND_ORGANIZATION_ROLE ( 'creator' ) ;
#120 = CC_DESIGN_PERSON_AND_ORGANIZATION_ASSIGNMENT ( #197, #240, ( #178 ) ) ;
#121 = EDGE_LOOP ( 'NONE', ( #72 ) ) ;
#122 = CALENDAR_DATE ( 2021, 13, 10 ) ;
#123 = FACE_OUTER_BOUND ( 'NONE', #227, .T. ) ;
#124 = CONICAL_SURFACE ( 'NONE', #7, 5.500000000000023093, 0.5235987755983019243 ) ;
#125 = DIRECTION ( 'NONE',  ( 0.0000000000000000000, -1.000000000000000000, 0.0000000000000000000 ) ) ;
#126 = CARTESIAN_POINT ( 'NONE',  ( 1.930789180380252430E-13, -4.250000000000034639, 55.29999999999999716 ) ) ;
#127 = CC_DESIGN_PERSON_AND_ORGANIZATION_ASSIGNMENT ( #149, #256, ( #178 ) ) ;
#128 = FACE_BOUND ( 'NONE', #121, .T. ) ;
#129 = DIRECTION ( 'NONE',  ( -3.491481338843133355E-15, 4.327174794786742882E-16, -1.000000000000000000 ) ) ;
#130 = FACE_OUTER_BOUND ( 'NONE', #164, .T. ) ;
#131 = CARTESIAN_POINT ( 'NONE',  ( 4.085033166446465899E-13, -1.432836755002403127E-14, 117.0000000000000000 ) ) ;
#132 = ORIENTED_EDGE ( 'NONE', *, *, #37, .F. ) ;
#133 = DIRECTION ( 'NONE',  ( 0.0000000000000000000, 1.000000000000000000, 0.0000000000000000000 ) ) ;
#134 = ADVANCED_FACE ( 'NONE', ( #123, #180 ), #263, .T. ) ;
#135 = PERSON_AND_ORGANIZATION ( #38, #193 ) ;
#136 = SECURITY_CLASSIFICATION_LEVEL ( 'unclassified' ) ;
#137 = EDGE_LOOP ( 'NONE', ( #13 ) ) ;
#138 = DATE_AND_TIME ( #166, #230 ) ;
#139 = EDGE_CURVE ( 'NONE', #248, #248, #81, .T. ) ;
#140 = DIRECTION ( 'NONE',  ( -3.491481338843133355E-15, 4.327174794786742882E-16, -1.000000000000000000 ) ) ;
#141 = CIRCLE ( 'NONE', #209, 5.000000000000002665 ) ;
#142 = MECHANICAL_CONTEXT ( 'NONE', #115, 'mechanical' ) ;
#143 = DIRECTION ( 'NONE',  ( -3.491481338843133355E-15, 1.224646799147353207E-16, -1.000000000000000000 ) ) ;
#144 = PERSON_AND_ORGANIZATION_ROLE ( 'design_owner' ) ;
#145 = VERTEX_POINT ( 'NONE', #184 ) ;
#146 = DIRECTION ( 'NONE',  ( -3.491481338843133355E-15, 1.224646799147353207E-16, -1.000000000000000000 ) ) ;
#147 = ORIENTED_EDGE ( 'NONE', *, *, #58, .F. ) ;
#148 = AXIS2_PLACEMENT_3D ( 'NONE', #96, #140, #35 ) ;
#149 = PERSON_AND_ORGANIZATION ( #38, #193 ) ;
#150 = ORIENTED_EDGE ( 'NONE', *, *, #247, .T. ) ;
#151 = APPROVAL_STATUS ( 'not_yet_approved' ) ;
#152 = DIRECTION ( 'NONE',  ( 3.491481338843133355E-15, -1.224646799147353207E-16, 1.000000000000000000 ) ) ;
#153 = DATE_TIME_ROLE ( 'creation_date' ) ;
#154 = APPROVAL ( #160, 'UNSPECIFIED' ) ;
#155 = AXIS2_PLACEMENT_3D ( 'NONE', #218, #26, #255 ) ;
#156 = DIRECTION ( 'NONE',  ( 0.0000000000000000000, 1.000000000000000000, 0.0000000000000000000 ) ) ;
#157 = CARTESIAN_POINT ( 'NONE',  ( 2.282276163277392712E-13, -5.000000000000027534, 65.36698729810773045 ) ) ;
#158 = LOCAL_TIME ( 14, 57, 17.00000000000000000, #21 ) ;
#159 = CARTESIAN_POINT ( 'NONE',  ( 5.400879943548021358E-15, -4.250000000000010658, 1.546873495631383655 ) ) ;
#160 = APPROVAL_STATUS ( 'not_yet_approved' ) ;
#161 = CC_DESIGN_DATE_AND_TIME_ASSIGNMENT ( #202, #238, ( #183 ) ) ;
#162 = AXIS2_PLACEMENT_3D ( 'NONE', #18, #103, #186 ) ;
#163 = DIRECTION ( 'NONE',  ( 1.510825004591027679E-30, 1.000000000000000000, 4.327174794786742882E-16 ) ) ;
#164 = EDGE_LOOP ( 'NONE', ( #11 ) ) ;
#165 = EDGE_CURVE ( 'NONE', #63, #63, #188, .T. ) ;
#166 = CALENDAR_DATE ( 2021, 13, 10 ) ;
#167 = EDGE_LOOP ( 'NONE', ( #31 ) ) ;
#168 = PLANE ( 'NONE',  #80 ) ;
#169 = CARTESIAN_POINT ( 'NONE',  ( 1.930789180380252430E-13, -2.392927661517068467E-14, 55.29999999999999716 ) ) ;
#170 = ORIENTED_EDGE ( 'NONE', *, *, #165, .F. ) ;
#171 = DATE_AND_TIME ( #53, #29 ) ;
#172 = CONICAL_SURFACE ( 'NONE', #155, 4.999999999999987566, 1.221730476396026610 ) ;
#173 = MANIFOLD_SOLID_BREP ( 'Corps-Déplacer/Copier1[1]', #177 ) ;
#174 = EDGE_LOOP ( 'NONE', ( #14 ) ) ;
#175 = EDGE_CURVE ( 'NONE', #246, #246, #229, .T. ) ;
#176 = EDGE_LOOP ( 'NONE', ( #64 ) ) ;
#177 = CLOSED_SHELL ( 'NONE', ( #134, #22, #75, #17, #259, #249, #196 ) ) ;
#178 = PRODUCT_DEFINITION_FORMATION_WITH_SPECIFIED_SOURCE ( 'ANY', '', #50, .NOT_KNOWN. ) ;
#179 = CYLINDRICAL_SURFACE ( 'NONE', #243, 4.250000000000010658 ) ;
#180 = FACE_OUTER_BOUND ( 'NONE', #176, .T. ) ;
#181 = LOCAL_TIME ( 14, 57, 17.00000000000000000, #32 ) ;
#182 = DESIGN_CONTEXT ( 'detailed design', #77, 'design' ) ;
#183 = SECURITY_CLASSIFICATION ( '', '', #136 ) ;
#184 = CARTESIAN_POINT ( 'NONE',  ( 4.085033166446465899E-13, 4.999999999999987566, 117.0000000000000000 ) ) ;
#185 = ADVANCED_FACE ( 'NONE', ( #70 ), #54, .T. ) ;
#186 = DIRECTION ( 'NONE',  ( 1.000000000000000000, 0.0000000000000000000, 0.0000000000000000000 ) ) ;
#187 = AXIS2_PLACEMENT_3D ( 'NONE', #9, #189, #6 ) ;
#188 = CIRCLE ( 'NONE', #71, 4.999999999999999112 ) ;
#189 = DIRECTION ( 'NONE',  ( -3.491481338843133355E-15, 1.224646799147353207E-16, -1.000000000000000000 ) ) ;
#190 = DIRECTION ( 'NONE',  ( 4.275831445896958607E-31, 1.000000000000000000, 1.224646799147353207E-16 ) ) ;
#191 = APPROVAL_PERSON_ORGANIZATION ( #219, #205, #223 ) ;
#192 = CIRCLE ( 'NONE', #90, 4.250000000000010658 ) ;
#193 = ORGANIZATION ( 'UNSPECIFIED', 'UNSPECIFIED', '' ) ;
#194 = APPROVAL_DATE_TIME ( #171, #78 ) ;
#195 = EDGE_LOOP ( 'NONE', ( #224 ) ) ;
#196 = ADVANCED_FACE ( 'NONE', ( #242 ), #201, .F. ) ;
#197 = PERSON_AND_ORGANIZATION ( #38, #193 ) ;
#198 = EDGE_LOOP ( 'NONE', ( #170 ) ) ;
#199 = FACE_OUTER_BOUND ( 'NONE', #167, .T. ) ;
#200 = ORIENTED_EDGE ( 'NONE', *, *, #165, .T. ) ;
#201 = PLANE ( 'NONE',  #117 ) ;
#202 = DATE_AND_TIME ( #122, #12 ) ;
#203 = DATE_AND_TIME ( #236, #158 ) ;
#204 = FACE_OUTER_BOUND ( 'NONE', #237, .T. ) ;
#205 = APPROVAL ( #118, 'UNSPECIFIED' ) ;
#206 = DIRECTION ( 'NONE',  ( 3.491481338843133355E-15, -4.327174794786742882E-16, 1.000000000000000000 ) ) ;
#207 = CARTESIAN_POINT ( 'NONE',  ( 0.0000000000000000000, 0.0000000000000000000, 0.0000000000000000000 ) ) ;
#208 = CARTESIAN_POINT ( 'NONE',  ( 2.227565094181918954E-13, 4.249999999999992895, 63.79999999999999716 ) ) ;
#209 = AXIS2_PLACEMENT_3D ( 'NONE', #131, #48, #133 ) ;
#210 = CARTESIAN_POINT ( 'NONE',  ( 2.245022500876134558E-13, -2.782373393047875326E-14, 64.29999999999999716 ) ) ;
#211 = VERTEX_POINT ( 'NONE', #8 ) ;
#212 = ADVANCED_FACE ( 'NONE', ( #112 ), #172, .T. ) ;
#213 = DIRECTION ( 'NONE',  ( -3.491481338843133355E-15, 1.224646799147353207E-16, -1.000000000000000000 ) ) ;
#214 = CARTESIAN_POINT ( 'NONE',  ( 2.227565094181918954E-13, -2.775557561562891351E-14, 63.79999999999999716 ) ) ;
#215 = APPROVAL_PERSON_ORGANIZATION ( #233, #154, #45 ) ;
#216 = EDGE_LOOP ( 'NONE', ( #150 ) ) ;
#217 = CARTESIAN_POINT ( 'NONE',  ( 5.400879943548022935E-15, -1.894373675110851803E-16, 1.546873495631384099 ) ) ;
#218 = CARTESIAN_POINT ( 'NONE',  ( 6.353976404174112936E-15, -2.228674911895109038E-16, 1.819851171331031026 ) ) ;
#219 = PERSON_AND_ORGANIZATION ( #38, #193 ) ;
#220 = EDGE_CURVE ( 'NONE', #231, #231, #69, .T. ) ;
#221 = EDGE_LOOP ( 'NONE', ( #147 ) ) ;
#222 = PERSON_AND_ORGANIZATION_ROLE ( 'classification_officer' ) ;
#223 = APPROVAL_ROLE ( '' ) ;
#224 = ORIENTED_EDGE ( 'NONE', *, *, #220, .T. ) ;
#225 = PERSON_AND_ORGANIZATION ( #38, #193 ) ;
#226 = AXIS2_PLACEMENT_3D ( 'NONE', #261, #152, #241 ) ;
#227 = EDGE_LOOP ( 'NONE', ( #200 ) ) ;
#228 = CIRCLE ( 'NONE', #187, 4.000000000000002665 ) ;
#229 = CIRCLE ( 'NONE', #107, 4.250000000000020428 ) ;
#230 = LOCAL_TIME ( 14, 57, 17.00000000000000000, #55 ) ;
#231 = VERTEX_POINT ( 'NONE', #86 ) ;
#232 = DIRECTION ( 'NONE',  ( -3.491481338843133355E-15, 1.224646799147353207E-16, -1.000000000000000000 ) ) ;
#233 = PERSON_AND_ORGANIZATION ( #38, #193 ) ;
#234 = DIRECTION ( 'NONE',  ( 0.0000000000000000000, -1.000000000000000000, 0.0000000000000000000 ) ) ;
#235 = APPLICATION_PROTOCOL_DEFINITION ( 'international standard', 'config_control_design', 1994, #77 ) ;
#236 = CALENDAR_DATE ( 2021, 13, 10 ) ;
#237 = EDGE_LOOP ( 'NONE', ( #132 ) ) ;
#238 = DATE_TIME_ROLE ( 'classification_date' ) ;
#239 = PERSON_AND_ORGANIZATION ( #38, #193 ) ;
#240 = PERSON_AND_ORGANIZATION_ROLE ( 'design_supplier' ) ;
#241 = DIRECTION ( 'NONE',  ( -4.275831445896958607E-31, -1.000000000000000000, -1.224646799147353207E-16 ) ) ;
#242 = FACE_OUTER_BOUND ( 'NONE', #195, .T. ) ;
#243 = AXIS2_PLACEMENT_3D ( 'NONE', #262, #76, #36 ) ;
#244 = FACE_BOUND ( 'NONE', #216, .T. ) ;
#245 = AXIS2_PLACEMENT_3D ( 'NONE', #210, #82, #156 ) ;
#246 = VERTEX_POINT ( 'NONE', #208 ) ;
#247 = EDGE_CURVE ( 'NONE', #211, #211, #228, .T. ) ;
#248 = VERTEX_POINT ( 'NONE', #2 ) ;
#249 = ADVANCED_FACE ( 'NONE', ( #23, #59 ), #67, .F. ) ;
#250 = CC_DESIGN_PERSON_AND_ORGANIZATION_ASSIGNMENT ( #239, #119, ( #105 ) ) ;
#251 =( LENGTH_UNIT ( ) NAMED_UNIT ( * ) SI_UNIT ( .MILLI., .METRE. ) );
#252 = COORDINATED_UNIVERSAL_TIME_OFFSET ( 1, 0, .AHEAD. ) ;
#253 = DATE_AND_TIME ( #52, #181 ) ;
#254 = CARTESIAN_POINT ( 'NONE',  ( 4.119947979834897107E-13, 2.999519565323694963E-32, 118.0000000000000000 ) ) ;
#255 = DIRECTION ( 'NONE',  ( -4.622231866529377433E-31, -1.000000000000000000, -1.301042606982608526E-16 ) ) ;
#256 = PERSON_AND_ORGANIZATION_ROLE ( 'creator' ) ;
#257 = CARTESIAN_POINT ( 'NONE',  ( 1.930789180380252430E-13, 3.749399456654630335E-32, 55.29999999999999716 ) ) ;
#258 = AXIS2_PLACEMENT_3D ( 'NONE', #214, #129, #163 ) ;
#259 = ADVANCED_FACE ( 'NONE', ( #128, #47 ), #124, .T. ) ;
#260 = EDGE_LOOP ( 'NONE', ( #97 ) ) ;
#261 = CARTESIAN_POINT ( 'NONE',  ( 1.930789180380252430E-13, 3.749399456654630335E-32, 55.29999999999999716 ) ) ;
#262 = CARTESIAN_POINT ( 'NONE',  ( 0.0000000000000000000, 0.0000000000000000000, 0.0000000000000000000 ) ) ;
#263 = CYLINDRICAL_SURFACE ( 'NONE', #102, 4.999999999999999112 ) ;
ENDSEC;
END-ISO-10303-21;
