ISO-10303-21;
HEADER;
FILE_DESCRIPTION (( 'STEP AP203' ),
    '1' );
FILE_NAME ('960188.step',
    '2021-10-13T12:57:17',
    ( '' ),
    ( '' ),
    'SwSTEP 2.0',
    'SolidWorks 2019',
    '' );
FILE_SCHEMA (( 'CONFIG_CONTROL_DESIGN' ));
ENDSEC;

DATA;
#1 = CONICAL_SURFACE ( 'NONE', #100, 5.500000000000022204, 0.5235987755983001479 ) ;
#2 = CIRCLE ( 'NONE', #180, 4.150000000000009237 ) ;
#3 = APPROVAL_PERSON_ORGANIZATION ( #133, #244, #228 ) ;
#4 = DIRECTION ( 'NONE',  ( -3.491481338843133355E-15, 1.224646799147353207E-16, -1.000000000000000000 ) ) ;
#5 = ORIENTED_EDGE ( 'NONE', *, *, #53, .T. ) ;
#6 = APPROVAL_STATUS ( 'not_yet_approved' ) ;
#7 = EDGE_LOOP ( 'NONE', ( #136 ) ) ;
#8 = MANIFOLD_SOLID_BREP ( 'Corps-Déplacer/Copier1[1]', #208 ) ;
#9 = APPLICATION_PROTOCOL_DEFINITION ( 'international standard', 'config_control_design', 1994, #223 ) ;
#10 = MANIFOLD_SOLID_BREP ( 'Corps-Déplacer/Copier1[2]', #185 ) ;
#11 = ORIENTED_EDGE ( 'NONE', *, *, #53, .F. ) ;
#12 = APPROVAL_DATE_TIME ( #16, #244 ) ;
#13 = EDGE_LOOP ( 'NONE', ( #123 ) ) ;
#14 = CC_DESIGN_SECURITY_CLASSIFICATION ( #85, ( #220 ) ) ;
#15 = PRODUCT ( '960188', '960188', '', ( #132 ) ) ;
#16 = DATE_AND_TIME ( #196, #139 ) ;
#17 = FACE_OUTER_BOUND ( 'NONE', #238, .T. ) ;
#18 = AXIS2_PLACEMENT_3D ( 'NONE', #122, #104, #83 ) ;
#19 = APPROVAL ( #40, 'UNSPECIFIED' ) ;
#20 = EDGE_CURVE ( 'NONE', #159, #159, #71, .T. ) ;
#21 = AXIS2_PLACEMENT_3D ( 'NONE', #189, #145, #187 ) ;
#22 = DATE_TIME_ROLE ( 'classification_date' ) ;
#23 = DIRECTION ( 'NONE',  ( -3.491481338843133355E-15, 1.224646799147353207E-16, -1.000000000000000000 ) ) ;
#24 = CARTESIAN_POINT ( 'NONE',  ( 2.235951366267300909E-13, -5.000000000000026645, 64.04019237886463145 ) ) ;
#25 = DIRECTION ( 'NONE',  ( 0.0000000000000000000, -1.000000000000000000, 0.0000000000000000000 ) ) ;
#26 = FACE_OUTER_BOUND ( 'NONE', #42, .T. ) ;
#27 = ORIENTED_EDGE ( 'NONE', *, *, #82, .F. ) ;
#28 = AXIS2_PLACEMENT_3D ( 'NONE', #230, #130, #213 ) ;
#29 = CARTESIAN_POINT ( 'NONE',  ( 2.235951366267300909E-13, -2.771131063151170532E-14, 64.04019237886463145 ) ) ;
#30 = DIRECTION ( 'NONE',  ( 1.000000000000000000, 0.0000000000000000000, 0.0000000000000000000 ) ) ;
#31 = DIRECTION ( 'NONE',  ( 0.0000000000000000000, 1.000000000000000000, 0.0000000000000000000 ) ) ;
#32 = FACE_OUTER_BOUND ( 'NONE', #90, .T. ) ;
#33 = FACE_OUTER_BOUND ( 'NONE', #47, .T. ) ;
#34 = CARTESIAN_POINT ( 'NONE',  ( 4.119947979834897107E-13, 2.999519565323694963E-32, 118.0000000000000000 ) ) ;
#35 = VERTEX_POINT ( 'NONE', #258 ) ;
#36 =( GEOMETRIC_REPRESENTATION_CONTEXT ( 3 ) GLOBAL_UNCERTAINTY_ASSIGNED_CONTEXT ( ( #49 ) ) GLOBAL_UNIT_ASSIGNED_CONTEXT ( ( #166, #69, #195 ) ) REPRESENTATION_CONTEXT ( 'NONE', 'WORKASPACE' ) );
#37 = FACE_OUTER_BOUND ( 'NONE', #151, .T. ) ;
#38 = ORIENTED_EDGE ( 'NONE', *, *, #137, .F. ) ;
#39 = ORIENTED_EDGE ( 'NONE', *, *, #96, .T. ) ;
#40 = APPROVAL_STATUS ( 'not_yet_approved' ) ;
#41 = CARTESIAN_POINT ( 'NONE',  ( 4.085033166446465899E-13, -1.432836755002403127E-14, 117.0000000000000000 ) ) ;
#42 = EDGE_LOOP ( 'NONE', ( #39 ) ) ;
#43 = CARTESIAN_POINT ( 'NONE',  ( 1.885399922975292012E-13, -2.336674389184841156E-14, 54.00000000000000000 ) ) ;
#44 = PERSON_AND_ORGANIZATION_ROLE ( 'design_supplier' ) ;
#45 = VERTEX_POINT ( 'NONE', #251 ) ;
#46 = DATE_AND_TIME ( #126, #255 ) ;
#47 = EDGE_LOOP ( 'NONE', ( #38 ) ) ;
#48 = APPROVAL_ROLE ( '' ) ;
#49 = UNCERTAINTY_MEASURE_WITH_UNIT (LENGTH_MEASURE( 1.000000000000000082E-05 ), #166, 'distance_accuracy_value', 'NONE');
#50 = APPROVAL_PERSON_ORGANIZATION ( #188, #55, #234 ) ;
#51 = FACE_BOUND ( 'NONE', #227, .T. ) ;
#52 = CIRCLE ( 'NONE', #80, 4.150000000000009237 ) ;
#53 = EDGE_CURVE ( 'NONE', #67, #67, #200, .T. ) ;
#54 = CARTESIAN_POINT ( 'NONE',  ( 4.119947979834897107E-13, 3.999999999999988010, 118.0000000000000000 ) ) ;
#55 = APPROVAL ( #6, 'UNSPECIFIED' ) ;
#56 = FACE_OUTER_BOUND ( 'NONE', #191, .T. ) ;
#57 = FACE_OUTER_BOUND ( 'NONE', #233, .T. ) ;
#58 = CARTESIAN_POINT ( 'NONE',  ( 4.119947979834897107E-13, -1.445083222993876641E-14, 118.0000000000000000 ) ) ;
#59 = AXIS2_PLACEMENT_3D ( 'NONE', #144, #224, #248 ) ;
#60 = CARTESIAN_POINT ( 'NONE',  ( 5.273800415464537853E-15, -4.150000000000009237, 1.510476472204762777 ) ) ;
#61 = DIRECTION ( 'NONE',  ( 1.510825004591028030E-30, 1.000000000000000000, 4.327174794786742389E-16 ) ) ;
#62 = FACE_OUTER_BOUND ( 'NONE', #149, .T. ) ;
#63 = PERSON_AND_ORGANIZATION ( #203, #64 ) ;
#64 = ORGANIZATION ( 'UNSPECIFIED', 'UNSPECIFIED', '' ) ;
#65 = PLANE ( 'NONE',  #252 ) ;
#66 = AXIS2_PLACEMENT_3D ( 'NONE', #58, #93, #31 ) ;
#67 = VERTEX_POINT ( 'NONE', #54 ) ;
#68 = AXIS2_PLACEMENT_3D ( 'NONE', #205, #124, #210 ) ;
#69 =( NAMED_UNIT ( * ) PLANE_ANGLE_UNIT ( ) SI_UNIT ( $, .RADIAN. ) );
#70 = ORIENTED_EDGE ( 'NONE', *, *, #20, .T. ) ;
#71 = CIRCLE ( 'NONE', #120, 5.000000000000002665 ) ;
#72 = CALENDAR_DATE ( 2021, 13, 10 ) ;
#73 = VERTEX_POINT ( 'NONE', #260 ) ;
#74 = CARTESIAN_POINT ( 'NONE',  ( 1.885399922975292012E-13, 3.749399456654630335E-32, 54.00000000000000000 ) ) ;
#75 = CONICAL_SURFACE ( 'NONE', #28, 4.999999999999987566, 1.221730476396026610 ) ;
#76 = CC_DESIGN_APPROVAL ( #19, ( #220 ) ) ;
#77 = AXIS2_PLACEMENT_3D ( 'NONE', #177, #94, #262 ) ;
#78 = CARTESIAN_POINT ( 'NONE',  ( 1.885399922975292012E-13, 3.749399456654630335E-32, 54.00000000000000000 ) ) ;
#79 = CARTESIAN_POINT ( 'NONE',  ( 4.085033166446465899E-13, 4.999999999999987566, 117.0000000000000000 ) ) ;
#80 = AXIS2_PLACEMENT_3D ( 'NONE', #182, #4, #25 ) ;
#81 = DIRECTION ( 'NONE',  ( 3.491481338843133355E-15, -4.327174794786742882E-16, 1.000000000000000000 ) ) ;
#82 = EDGE_CURVE ( 'NONE', #35, #35, #91, .T. ) ;
#83 = DIRECTION ( 'NONE',  ( 1.510825004591028030E-30, 1.000000000000000000, 4.327174794786742389E-16 ) ) ;
#84 = EDGE_CURVE ( 'NONE', #236, #236, #52, .T. ) ;
#85 = SECURITY_CLASSIFICATION ( '', '', #214 ) ;
#86 = PERSON_AND_ORGANIZATION_ROLE ( 'creator' ) ;
#87 = PERSON_AND_ORGANIZATION_ROLE ( 'creator' ) ;
#88 = ORIENTED_EDGE ( 'NONE', *, *, #84, .T. ) ;
#89 = DIRECTION ( 'NONE',  ( 0.0000000000000000000, 0.0000000000000000000, 1.000000000000000000 ) ) ;
#90 = EDGE_LOOP ( 'NONE', ( #70 ) ) ;
#91 = CIRCLE ( 'NONE', #21, 4.150000000000018119 ) ;
#92 = CARTESIAN_POINT ( 'NONE',  ( 0.0000000000000000000, 0.0000000000000000000, 0.0000000000000000000 ) ) ;
#93 = DIRECTION ( 'NONE',  ( -3.491481338843133355E-15, 1.224646799147353207E-16, -1.000000000000000000 ) ) ;
#94 = DIRECTION ( 'NONE',  ( -3.491481338843133355E-15, 1.224646799147353207E-16, -1.000000000000000000 ) ) ;
#95 = AXIS2_PLACEMENT_3D ( 'NONE', #29, #81, #162 ) ;
#96 = EDGE_CURVE ( 'NONE', #45, #45, #2, .T. ) ;
#97 = AXIS2_PLACEMENT_3D ( 'NONE', #78, #242, #194 ) ;
#98 = FACE_OUTER_BOUND ( 'NONE', #218, .T. ) ;
#99 = APPROVAL_PERSON_ORGANIZATION ( #253, #19, #48 ) ;
#100 = AXIS2_PLACEMENT_3D ( 'NONE', #119, #169, #128 ) ;
#101 = FACE_OUTER_BOUND ( 'NONE', #127, .T. ) ;
#102 = AXIS2_PLACEMENT_3D ( 'NONE', #209, #23, #106 ) ;
#103 = CC_DESIGN_PERSON_AND_ORGANIZATION_ASSIGNMENT ( #193, #87, ( #161 ) ) ;
#104 = DIRECTION ( 'NONE',  ( -3.491481338843133355E-15, 4.327174794786742882E-16, -1.000000000000000000 ) ) ;
#105 = COORDINATED_UNIVERSAL_TIME_OFFSET ( 1, 0, .AHEAD. ) ;
#106 = DIRECTION ( 'NONE',  ( 0.0000000000000000000, 1.000000000000000000, 0.0000000000000000000 ) ) ;
#107 = CARTESIAN_POINT ( 'NONE',  ( 0.0000000000000000000, 0.0000000000000000000, 0.0000000000000000000 ) ) ;
#108 = CONICAL_SURFACE ( 'NONE', #66, 4.000000000000002665, 0.7853981633974479459 ) ;
#109 = ORIENTED_EDGE ( 'NONE', *, *, #82, .T. ) ;
#110 = CC_DESIGN_PERSON_AND_ORGANIZATION_ASSIGNMENT ( #135, #86, ( #220 ) ) ;
#111 = PERSON_AND_ORGANIZATION_ROLE ( 'design_owner' ) ;
#112 = EDGE_LOOP ( 'NONE', ( #88 ) ) ;
#113 = ADVANCED_FACE ( 'NONE', ( #56, #152 ), #246, .F. ) ;
#114 = CC_DESIGN_PERSON_AND_ORGANIZATION_ASSIGNMENT ( #63, #175, ( #85 ) ) ;
#115 = CYLINDRICAL_SURFACE ( 'NONE', #77, 4.999999999999999112 ) ;
#116 = CC_DESIGN_APPROVAL ( #244, ( #161 ) ) ;
#117 = ADVANCED_FACE ( 'NONE', ( #62 ), #75, .T. ) ;
#118 = DIRECTION ( 'NONE',  ( 4.275831445896958607E-31, 1.000000000000000000, 1.224646799147353207E-16 ) ) ;
#119 = CARTESIAN_POINT ( 'NONE',  ( 2.266188481630076962E-13, -2.808605496140182514E-14, 64.90621778264909381 ) ) ;
#120 = AXIS2_PLACEMENT_3D ( 'NONE', #41, #165, #148 ) ;
#121 = LOCAL_TIME ( 14, 57, 17.00000000000000000, #171 ) ;
#122 = CARTESIAN_POINT ( 'NONE',  ( 0.0000000000000000000, 0.0000000000000000000, 0.0000000000000000000 ) ) ;
#123 = ORIENTED_EDGE ( 'NONE', *, *, #20, .F. ) ;
#124 = DIRECTION ( 'NONE',  ( -3.491481338843133355E-15, 1.224646799147353207E-16, -1.000000000000000000 ) ) ;
#125 = ORIENTED_EDGE ( 'NONE', *, *, #96, .F. ) ;
#126 = CALENDAR_DATE ( 2021, 13, 10 ) ;
#127 = EDGE_LOOP ( 'NONE', ( #109 ) ) ;
#128 = DIRECTION ( 'NONE',  ( 0.0000000000000000000, -1.000000000000000000, 0.0000000000000000000 ) ) ;
#129 = EDGE_LOOP ( 'NONE', ( #5 ) ) ;
#130 = DIRECTION ( 'NONE',  ( 3.491481338843133355E-15, -1.224646799147353207E-16, 1.000000000000000000 ) ) ;
#131 = ADVANCED_FACE ( 'NONE', ( #101, #57 ), #225, .T. ) ;
#132 = MECHANICAL_CONTEXT ( 'NONE', #223, 'mechanical' ) ;
#133 = PERSON_AND_ORGANIZATION ( #203, #64 ) ;
#134 = ADVANCED_FACE ( 'NONE', ( #164, #249 ), #108, .T. ) ;
#135 = PERSON_AND_ORGANIZATION ( #203, #64 ) ;
#136 = ORIENTED_EDGE ( 'NONE', *, *, #174, .T. ) ;
#137 = EDGE_CURVE ( 'NONE', #211, #211, #217, .T. ) ;
#138 = DATE_AND_TIME ( #257, #121 ) ;
#139 = LOCAL_TIME ( 14, 57, 17.00000000000000000, #197 ) ;
#140 = DESIGN_CONTEXT ( 'detailed design', #241, 'design' ) ;
#141 = AXIS2_PLACEMENT_3D ( 'NONE', #107, #190, #61 ) ;
#142 = LOCAL_TIME ( 14, 57, 17.00000000000000000, #263 ) ;
#143 = DIRECTION ( 'NONE',  ( 3.491481338843133355E-15, -1.224646799147353207E-16, 1.000000000000000000 ) ) ;
#144 = CARTESIAN_POINT ( 'NONE',  ( 2.175192874099271891E-13, -2.688821387764050996E-14, 62.29999999999999716 ) ) ;
#145 = DIRECTION ( 'NONE',  ( -3.491481338843133355E-15, 4.327174794786742882E-16, -1.000000000000000000 ) ) ;
#146 = DIRECTION ( 'NONE',  ( -3.491481338843133355E-15, 4.327174794786742882E-16, -1.000000000000000000 ) ) ;
#147 = DIRECTION ( 'NONE',  ( -3.491481338843133355E-15, 1.224646799147353207E-16, -1.000000000000000000 ) ) ;
#148 = DIRECTION ( 'NONE',  ( 0.0000000000000000000, 1.000000000000000000, 0.0000000000000000000 ) ) ;
#149 = EDGE_LOOP ( 'NONE', ( #229 ) ) ;
#150 = VERTEX_POINT ( 'NONE', #60 ) ;
#151 = EDGE_LOOP ( 'NONE', ( #215 ) ) ;
#152 = FACE_OUTER_BOUND ( 'NONE', #7, .T. ) ;
#153 = LOCAL_TIME ( 14, 57, 17.00000000000000000, #105 ) ;
#154 = APPROVAL_DATE_TIME ( #46, #19 ) ;
#155 = CARTESIAN_POINT ( 'NONE',  ( 1.885399922975292012E-13, -4.150000000000033218, 54.00000000000000000 ) ) ;
#156 = APPROVAL_STATUS ( 'not_yet_approved' ) ;
#157 = CC_DESIGN_PERSON_AND_ORGANIZATION_ASSIGNMENT ( #216, #111, ( #15 ) ) ;
#158 = CIRCLE ( 'NONE', #245, 4.283974596215580632 ) ;
#159 = VERTEX_POINT ( 'NONE', #79 ) ;
#160 = ADVANCED_FACE ( 'NONE', ( #51, #33 ), #1, .T. ) ;
#161 = PRODUCT_DEFINITION ( 'UNKNOWN', '', #220, #140 ) ;
#162 = DIRECTION ( 'NONE',  ( 0.0000000000000000000, -1.000000000000000000, 0.0000000000000000000 ) ) ;
#163 = PRODUCT_DEFINITION_SHAPE ( 'NONE', 'NONE',  #161 ) ;
#164 = FACE_OUTER_BOUND ( 'NONE', #13, .T. ) ;
#165 = DIRECTION ( 'NONE',  ( -3.491481338843133355E-15, 1.224646799147353207E-16, -1.000000000000000000 ) ) ;
#166 =( LENGTH_UNIT ( ) NAMED_UNIT ( * ) SI_UNIT ( .MILLI., .METRE. ) );
#167 = DIRECTION ( 'NONE',  ( 0.0000000000000000000, 1.000000000000000000, 0.0000000000000000000 ) ) ;
#168 = PERSON_AND_ORGANIZATION ( #203, #64 ) ;
#169 = DIRECTION ( 'NONE',  ( 3.491481338843133355E-15, -4.327174794786742882E-16, 1.000000000000000000 ) ) ;
#170 = ORIENTED_EDGE ( 'NONE', *, *, #174, .F. ) ;
#171 = COORDINATED_UNIVERSAL_TIME_OFFSET ( 1, 0, .AHEAD. ) ;
#172 = CC_DESIGN_APPROVAL ( #55, ( #85 ) ) ;
#173 = DATE_TIME_ROLE ( 'creation_date' ) ;
#174 = EDGE_CURVE ( 'NONE', #73, #73, #158, .T. ) ;
#175 = PERSON_AND_ORGANIZATION_ROLE ( 'classification_officer' ) ;
#176 = FACE_OUTER_BOUND ( 'NONE', #112, .T. ) ;
#177 = CARTESIAN_POINT ( 'NONE',  ( 0.0000000000000000000, 0.0000000000000000000, 0.0000000000000000000 ) ) ;
#178 = APPROVAL_DATE_TIME ( #219, #55 ) ;
#179 = CC_DESIGN_PERSON_AND_ORGANIZATION_ASSIGNMENT ( #168, #44, ( #220 ) ) ;
#180 = AXIS2_PLACEMENT_3D ( 'NONE', #43, #147, #192 ) ;
#181 = CC_DESIGN_DATE_AND_TIME_ASSIGNMENT ( #239, #173, ( #161 ) ) ;
#182 = CARTESIAN_POINT ( 'NONE',  ( 1.885399922975292012E-13, -2.336674389184841156E-14, 54.00000000000000000 ) ) ;
#183 = CIRCLE ( 'NONE', #68, 4.150000000000009237 ) ;
#184 = CARTESIAN_POINT ( 'NONE',  ( 2.192650280793487495E-13, -2.717465771126074341E-14, 62.79999999999999716 ) ) ;
#185 = CLOSED_SHELL ( 'NONE', ( #117, #201, #226 ) ) ;
#186 = ORIENTED_EDGE ( 'NONE', *, *, #137, .T. ) ;
#187 = DIRECTION ( 'NONE',  ( 0.0000000000000000000, 1.000000000000000000, 0.0000000000000000000 ) ) ;
#188 = PERSON_AND_ORGANIZATION ( #203, #64 ) ;
#189 = CARTESIAN_POINT ( 'NONE',  ( 2.175192874099271891E-13, -2.695829897152140468E-14, 62.29999999999999716 ) ) ;
#190 = DIRECTION ( 'NONE',  ( -3.491481338843133355E-15, 4.327174794786742882E-16, -1.000000000000000000 ) ) ;
#191 = EDGE_LOOP ( 'NONE', ( #27 ) ) ;
#192 = DIRECTION ( 'NONE',  ( 0.0000000000000000000, -1.000000000000000000, 0.0000000000000000000 ) ) ;
#193 = PERSON_AND_ORGANIZATION ( #203, #64 ) ;
#194 = DIRECTION ( 'NONE',  ( -4.275831445896958607E-31, -1.000000000000000000, -1.224646799147353207E-16 ) ) ;
#195 =( NAMED_UNIT ( * ) SI_UNIT ( $, .STERADIAN. ) SOLID_ANGLE_UNIT ( ) );
#196 = CALENDAR_DATE ( 2021, 13, 10 ) ;
#197 = COORDINATED_UNIVERSAL_TIME_OFFSET ( 1, 0, .AHEAD. ) ;
#198 = DIRECTION ( 'NONE',  ( -3.491481338843133355E-15, 1.224646799147353207E-16, -1.000000000000000000 ) ) ;
#199 = EDGE_CURVE ( 'NONE', #150, #150, #183, .T. ) ;
#200 = CIRCLE ( 'NONE', #102, 4.000000000000002665 ) ;
#201 = ADVANCED_FACE ( 'NONE', ( #26, #37 ), #250, .T. ) ;
#202 = DIRECTION ( 'NONE',  ( -4.275831445896958607E-31, -1.000000000000000000, -1.224646799147353207E-16 ) ) ;
#203 = PERSON ( 'UNSPECIFIED', 'UNSPECIFIED', 'UNSPECIFIED', ('UNSPECIFIED'), ('UNSPECIFIED'), ('UNSPECIFIED') ) ;
#204 = PLANE ( 'NONE',  #97 ) ;
#205 = CARTESIAN_POINT ( 'NONE',  ( 5.273800415464539430E-15, -1.849800176872949277E-16, 1.510476472204762999 ) ) ;
#206 = ADVANCED_FACE ( 'NONE', ( #17, #32 ), #115, .T. ) ;
#207 = ADVANCED_FACE ( 'NONE', ( #176 ), #261, .F. ) ;
#208 = CLOSED_SHELL ( 'NONE', ( #206, #134, #247, #131, #160, #113, #207 ) ) ;
#209 = CARTESIAN_POINT ( 'NONE',  ( 4.119947979834897107E-13, -1.445083222993876641E-14, 118.0000000000000000 ) ) ;
#210 = DIRECTION ( 'NONE',  ( -3.712636037372976641E-31, -1.000000000000000000, -1.045014142154700779E-16 ) ) ;
#211 = VERTEX_POINT ( 'NONE', #24 ) ;
#212 = EDGE_LOOP ( 'NONE', ( #11 ) ) ;
#213 = DIRECTION ( 'NONE',  ( -4.622231866529377433E-31, -1.000000000000000000, -1.301042606982608526E-16 ) ) ;
#214 = SECURITY_CLASSIFICATION_LEVEL ( 'unclassified' ) ;
#215 = ORIENTED_EDGE ( 'NONE', *, *, #199, .F. ) ;
#216 = PERSON_AND_ORGANIZATION ( #203, #64 ) ;
#217 = CIRCLE ( 'NONE', #95, 4.999999999999999112 ) ;
#218 = EDGE_LOOP ( 'NONE', ( #125 ) ) ;
#219 = DATE_AND_TIME ( #221, #142 ) ;
#220 = PRODUCT_DEFINITION_FORMATION_WITH_SPECIFIED_SOURCE ( 'ANY', '', #15, .NOT_KNOWN. ) ;
#221 = CALENDAR_DATE ( 2021, 13, 10 ) ;
#222 = SHAPE_DEFINITION_REPRESENTATION ( #163, #256 ) ;
#223 = APPLICATION_CONTEXT ( 'configuration controlled 3d designs of mechanical parts and assemblies' ) ;
#224 = DIRECTION ( 'NONE',  ( -3.491481338843133355E-15, 4.327174794786742882E-16, -1.000000000000000000 ) ) ;
#225 = CYLINDRICAL_SURFACE ( 'NONE', #18, 4.150000000000009237 ) ;
#226 = ADVANCED_FACE ( 'NONE', ( #98 ), #204, .T. ) ;
#227 = EDGE_LOOP ( 'NONE', ( #170 ) ) ;
#228 = APPROVAL_ROLE ( '' ) ;
#229 = ORIENTED_EDGE ( 'NONE', *, *, #199, .T. ) ;
#230 = CARTESIAN_POINT ( 'NONE',  ( 6.353976404174112936E-15, -2.228674911895109038E-16, 1.819851171331031026 ) ) ;
#231 = PRODUCT_RELATED_PRODUCT_CATEGORY ( 'detail', '', ( #15 ) ) ;
#232 = AXIS2_PLACEMENT_3D ( 'NONE', #92, #89, #30 ) ;
#233 = EDGE_LOOP ( 'NONE', ( #235 ) ) ;
#234 = APPROVAL_ROLE ( '' ) ;
#235 = ORIENTED_EDGE ( 'NONE', *, *, #84, .F. ) ;
#236 = VERTEX_POINT ( 'NONE', #155 ) ;
#237 = COORDINATED_UNIVERSAL_TIME_OFFSET ( 1, 0, .AHEAD. ) ;
#238 = EDGE_LOOP ( 'NONE', ( #186 ) ) ;
#239 = DATE_AND_TIME ( #72, #153 ) ;
#240 = CC_DESIGN_DATE_AND_TIME_ASSIGNMENT ( #138, #22, ( #85 ) ) ;
#241 = APPLICATION_CONTEXT ( 'configuration controlled 3d designs of mechanical parts and assemblies' ) ;
#242 = DIRECTION ( 'NONE',  ( 3.491481338843133355E-15, -1.224646799147353207E-16, 1.000000000000000000 ) ) ;
#243 = AXIS2_PLACEMENT_3D ( 'NONE', #74, #143, #202 ) ;
#244 = APPROVAL ( #156, 'UNSPECIFIED' ) ;
#245 = AXIS2_PLACEMENT_3D ( 'NONE', #184, #146, #167 ) ;
#246 = TOROIDAL_SURFACE ( 'NONE', #59, 5.150000000000019895, 1.000000000000000444 ) ;
#247 = ADVANCED_FACE ( 'NONE', ( #254 ), #65, .F. ) ;
#248 = DIRECTION ( 'NONE',  ( 1.510825004591027679E-30, 1.000000000000000000, 4.327174794786742389E-16 ) ) ;
#249 = FACE_BOUND ( 'NONE', #129, .T. ) ;
#250 = CYLINDRICAL_SURFACE ( 'NONE', #141, 4.150000000000009237 ) ;
#251 = CARTESIAN_POINT ( 'NONE',  ( 1.885399922975292012E-13, -4.150000000000033218, 54.00000000000000000 ) ) ;
#252 = AXIS2_PLACEMENT_3D ( 'NONE', #34, #198, #118 ) ;
#253 = PERSON_AND_ORGANIZATION ( #203, #64 ) ;
#254 = FACE_OUTER_BOUND ( 'NONE', #212, .T. ) ;
#255 = LOCAL_TIME ( 14, 57, 17.00000000000000000, #237 ) ;
#256 = ADVANCED_BREP_SHAPE_REPRESENTATION ( '960188', ( #8, #10, #232 ), #36 ) ;
#257 = CALENDAR_DATE ( 2021, 13, 10 ) ;
#258 = CARTESIAN_POINT ( 'NONE',  ( 2.175192874099271891E-13, 4.149999999999991473, 62.29999999999999716 ) ) ;
#259 = APPLICATION_PROTOCOL_DEFINITION ( 'international standard', 'config_control_design', 1994, #241 ) ;
#260 = CARTESIAN_POINT ( 'NONE',  ( 2.192650280793487495E-13, 4.283974596215553987, 62.79999999999999716 ) ) ;
#261 = PLANE ( 'NONE',  #243 ) ;
#262 = DIRECTION ( 'NONE',  ( 4.275831445896958607E-31, 1.000000000000000000, 1.224646799147353207E-16 ) ) ;
#263 = COORDINATED_UNIVERSAL_TIME_OFFSET ( 1, 0, .AHEAD. ) ;
ENDSEC;
END-ISO-10303-21;
