ISO-10303-21;
HEADER;
FILE_DESCRIPTION (( 'STEP AP203' ),
    '1' );
FILE_NAME ('960187.step',
    '2021-10-13T12:57:16',
    ( '' ),
    ( '' ),
    'SwSTEP 2.0',
    'SolidWorks 2019',
    '' );
FILE_SCHEMA (( 'CONFIG_CONTROL_DESIGN' ));
ENDSEC;

DATA;
#1 = PERSON_AND_ORGANIZATION ( #244, #240 ) ;
#2 = PERSON_AND_ORGANIZATION ( #244, #240 ) ;
#3 = EDGE_CURVE ( 'NONE', #120, #120, #87, .T. ) ;
#4 = APPROVAL ( #86, 'UNSPECIFIED' ) ;
#5 = COORDINATED_UNIVERSAL_TIME_OFFSET ( 1, 0, .AHEAD. ) ;
#6 = PERSON_AND_ORGANIZATION ( #244, #240 ) ;
#7 = AXIS2_PLACEMENT_3D ( 'NONE', #114, #189, #134 ) ;
#8 = APPROVAL_PERSON_ORGANIZATION ( #157, #21, #235 ) ;
#9 = CARTESIAN_POINT ( 'NONE',  ( 6.353976404174112936E-15, -2.228674911895109038E-16, 1.819851171331031026 ) ) ;
#10 = FACE_OUTER_BOUND ( 'NONE', #188, .T. ) ;
#11 = DIRECTION ( 'NONE',  ( -3.491481338843133355E-15, 4.327174794786742882E-16, -1.000000000000000000 ) ) ;
#12 = EDGE_CURVE ( 'NONE', #122, #122, #103, .T. ) ;
#13 = DIRECTION ( 'NONE',  ( 4.275831445896958607E-31, 1.000000000000000000, 1.224646799147353207E-16 ) ) ;
#14 = VERTEX_POINT ( 'NONE', #141 ) ;
#15 = ORIENTED_EDGE ( 'NONE', *, *, #109, .T. ) ;
#16 = SECURITY_CLASSIFICATION ( '', '', #89 ) ;
#17 =( NAMED_UNIT ( * ) SI_UNIT ( $, .STERADIAN. ) SOLID_ANGLE_UNIT ( ) );
#18 = AXIS2_PLACEMENT_3D ( 'NONE', #118, #94, #72 ) ;
#19 = CARTESIAN_POINT ( 'NONE',  ( 4.119947979834897107E-13, 3.999999999999988010, 118.0000000000000000 ) ) ;
#20 = ADVANCED_FACE ( 'NONE', ( #39 ), #74, .T. ) ;
#21 = APPROVAL ( #57, 'UNSPECIFIED' ) ;
#22 = DATE_AND_TIME ( #41, #113 ) ;
#23 = CONICAL_SURFACE ( 'NONE', #53, 5.500000000000022204, 0.5235987755983005920 ) ;
#24 = DIRECTION ( 'NONE',  ( -3.491481338843133355E-15, 4.327174794786742882E-16, -1.000000000000000000 ) ) ;
#25 = FACE_OUTER_BOUND ( 'NONE', #248, .T. ) ;
#26 = ORIENTED_EDGE ( 'NONE', *, *, #109, .F. ) ;
#27 = CARTESIAN_POINT ( 'NONE',  ( 1.860959553603390015E-13, -2.306384165621333925E-14, 53.29999999999999716 ) ) ;
#28 = PLANE ( 'NONE',  #224 ) ;
#29 = AXIS2_PLACEMENT_3D ( 'NONE', #218, #95, #227 ) ;
#30 = ORIENTED_EDGE ( 'NONE', *, *, #226, .F. ) ;
#31 =( NAMED_UNIT ( * ) PLANE_ANGLE_UNIT ( ) SI_UNIT ( $, .RADIAN. ) );
#32 = DIRECTION ( 'NONE',  ( 1.510825004591027679E-30, 1.000000000000000000, 4.327174794786742389E-16 ) ) ;
#33 = COORDINATED_UNIVERSAL_TIME_OFFSET ( 1, 0, .AHEAD. ) ;
#34 = TOROIDAL_SURFACE ( 'NONE', #262, 5.100000000000018296, 0.9999999999999995559 ) ;
#35 = CC_DESIGN_APPROVAL ( #21, ( #139 ) ) ;
#36 = CARTESIAN_POINT ( 'NONE',  ( 2.164718430082742680E-13, 4.233974596215554165, 62.00000000000000000 ) ) ;
#37 = EDGE_LOOP ( 'NONE', ( #106 ) ) ;
#38 = COORDINATED_UNIVERSAL_TIME_OFFSET ( 1, 0, .AHEAD. ) ;
#39 = FACE_OUTER_BOUND ( 'NONE', #66, .T. ) ;
#40 = PERSON_AND_ORGANIZATION_ROLE ( 'creator' ) ;
#41 = CALENDAR_DATE ( 2021, 13, 10 ) ;
#42 = ORIENTED_EDGE ( 'NONE', *, *, #198, .F. ) ;
#43 = AXIS2_PLACEMENT_3D ( 'NONE', #90, #230, #152 ) ;
#44 = FACE_BOUND ( 'NONE', #133, .T. ) ;
#45 = AXIS2_PLACEMENT_3D ( 'NONE', #191, #171, #150 ) ;
#46 = PRODUCT_RELATED_PRODUCT_CATEGORY ( 'detail', '', ( #222 ) ) ;
#47 = DIRECTION ( 'NONE',  ( -3.491481338843133355E-15, 1.224646799147353207E-16, -1.000000000000000000 ) ) ;
#48 = ADVANCED_FACE ( 'NONE', ( #10 ), #50, .F. ) ;
#49 = DIRECTION ( 'NONE',  ( 0.0000000000000000000, 1.000000000000000000, 0.0000000000000000000 ) ) ;
#50 = PLANE ( 'NONE',  #125 ) ;
#51 = EDGE_LOOP ( 'NONE', ( #42 ) ) ;
#52 = CONICAL_SURFACE ( 'NONE', #7, 4.000000000000002665, 0.7853981633974479459 ) ;
#53 = AXIS2_PLACEMENT_3D ( 'NONE', #211, #91, #251 ) ;
#54 = DIRECTION ( 'NONE',  ( -3.491481338843133355E-15, 1.224646799147353207E-16, -1.000000000000000000 ) ) ;
#55 = CALENDAR_DATE ( 2021, 13, 10 ) ;
#56 = CARTESIAN_POINT ( 'NONE',  ( 1.860959553603390015E-13, -4.100000000000032507, 53.29999999999999716 ) ) ;
#57 = APPROVAL_STATUS ( 'not_yet_approved' ) ;
#58 =( LENGTH_UNIT ( ) NAMED_UNIT ( * ) SI_UNIT ( .MILLI., .METRE. ) );
#59 = ADVANCED_FACE ( 'NONE', ( #119, #25 ), #67, .T. ) ;
#60 = DATE_TIME_ROLE ( 'creation_date' ) ;
#61 = CC_DESIGN_PERSON_AND_ORGANIZATION_ASSIGNMENT ( #123, #196, ( #222 ) ) ;
#62 = LOCAL_TIME ( 14, 57, 16.00000000000000000, #38 ) ;
#63 = PERSON_AND_ORGANIZATION_ROLE ( 'design_supplier' ) ;
#64 = CARTESIAN_POINT ( 'NONE',  ( 4.085033166446465899E-13, -1.432836755002403127E-14, 117.0000000000000000 ) ) ;
#65 = CLOSED_SHELL ( 'NONE', ( #184, #59, #20 ) ) ;
#66 = EDGE_LOOP ( 'NONE', ( #259 ) ) ;
#67 = CYLINDRICAL_SURFACE ( 'NONE', #43, 4.100000000000009415 ) ;
#68 = DIRECTION ( 'NONE',  ( -3.491481338843133355E-15, 1.224646799147353207E-16, -1.000000000000000000 ) ) ;
#69 = CARTESIAN_POINT ( 'NONE',  ( 0.0000000000000000000, 0.0000000000000000000, 0.0000000000000000000 ) ) ;
#70 = CC_DESIGN_SECURITY_CLASSIFICATION ( #16, ( #257 ) ) ;
#71 = FACE_BOUND ( 'NONE', #37, .T. ) ;
#72 = DIRECTION ( 'NONE',  ( 0.0000000000000000000, 1.000000000000000000, 0.0000000000000000000 ) ) ;
#73 = LOCAL_TIME ( 14, 57, 16.00000000000000000, #142 ) ;
#74 = PLANE ( 'NONE',  #97 ) ;
#75 = VERTEX_POINT ( 'NONE', #19 ) ;
#76 = EDGE_LOOP ( 'NONE', ( #161 ) ) ;
#77 = CC_DESIGN_PERSON_AND_ORGANIZATION_ASSIGNMENT ( #2, #130, ( #16 ) ) ;
#78 = CLOSED_SHELL ( 'NONE', ( #219, #92, #165, #245, #237, #155, #48 ) ) ;
#79 = AXIS2_PLACEMENT_3D ( 'NONE', #64, #47, #49 ) ;
#80 = EDGE_LOOP ( 'NONE', ( #99 ) ) ;
#81 = ADVANCED_BREP_SHAPE_REPRESENTATION ( '960187', ( #202, #116, #233 ), #166 ) ;
#82 = DATE_AND_TIME ( #102, #73 ) ;
#83 = CARTESIAN_POINT ( 'NONE',  ( 2.147261023388527077E-13, 4.099999999999991651, 61.50000000000000000 ) ) ;
#84 = APPROVAL_DATE_TIME ( #22, #4 ) ;
#85 = APPROVAL ( #140, 'UNSPECIFIED' ) ;
#86 = APPROVAL_STATUS ( 'not_yet_approved' ) ;
#87 = CIRCLE ( 'NONE', #186, 4.100000000000009415 ) ;
#88 = LOCAL_TIME ( 14, 57, 16.00000000000000000, #33 ) ;
#89 = SECURITY_CLASSIFICATION_LEVEL ( 'unclassified' ) ;
#90 = CARTESIAN_POINT ( 'NONE',  ( 0.0000000000000000000, 0.0000000000000000000, 0.0000000000000000000 ) ) ;
#91 = DIRECTION ( 'NONE',  ( 3.491481338843133355E-15, -4.327174794786742882E-16, 1.000000000000000000 ) ) ;
#92 = ADVANCED_FACE ( 'NONE', ( #254, #71 ), #52, .T. ) ;
#93 = DIRECTION ( 'NONE',  ( 0.0000000000000000000, -1.000000000000000000, 0.0000000000000000000 ) ) ;
#94 = DIRECTION ( 'NONE',  ( -3.491481338843133355E-15, 1.224646799147353207E-16, -1.000000000000000000 ) ) ;
#95 = DIRECTION ( 'NONE',  ( 3.491481338843133355E-15, -4.327174794786742882E-16, 1.000000000000000000 ) ) ;
#96 = VERTEX_POINT ( 'NONE', #263 ) ;
#97 = AXIS2_PLACEMENT_3D ( 'NONE', #156, #151, #234 ) ;
#98 = CONICAL_SURFACE ( 'NONE', #215, 4.999999999999987566, 1.221730476396026610 ) ;
#99 = ORIENTED_EDGE ( 'NONE', *, *, #12, .T. ) ;
#100 = CC_DESIGN_APPROVAL ( #4, ( #16 ) ) ;
#101 = DIRECTION ( 'NONE',  ( -3.491481338843133355E-15, 4.327174794786742882E-16, -1.000000000000000000 ) ) ;
#102 = CALENDAR_DATE ( 2021, 13, 10 ) ;
#103 = CIRCLE ( 'NONE', #250, 4.100000000000018296 ) ;
#104 = PERSON_AND_ORGANIZATION ( #244, #240 ) ;
#105 = EDGE_CURVE ( 'NONE', #236, #236, #195, .T. ) ;
#106 = ORIENTED_EDGE ( 'NONE', *, *, #198, .T. ) ;
#107 = CALENDAR_DATE ( 2021, 13, 10 ) ;
#108 = UNCERTAINTY_MEASURE_WITH_UNIT (LENGTH_MEASURE( 1.000000000000000082E-05 ), #58, 'distance_accuracy_value', 'NONE');
#109 = EDGE_CURVE ( 'NONE', #180, #180, #110, .T. ) ;
#110 = CIRCLE ( 'NONE', #232, 4.233974596215580810 ) ;
#111 = CIRCLE ( 'NONE', #29, 4.999999999999999112 ) ;
#112 = ORIENTED_EDGE ( 'NONE', *, *, #105, .T. ) ;
#113 = LOCAL_TIME ( 14, 57, 16.00000000000000000, #148 ) ;
#114 = CARTESIAN_POINT ( 'NONE',  ( 4.119947979834897107E-13, -1.445083222993876641E-14, 118.0000000000000000 ) ) ;
#115 = FACE_OUTER_BOUND ( 'NONE', #255, .T. ) ;
#116 = MANIFOLD_SOLID_BREP ( 'Corps-Déplacer/Copier1[2]', #65 ) ;
#117 = DIRECTION ( 'NONE',  ( -3.491481338843133355E-15, 1.224646799147353207E-16, -1.000000000000000000 ) ) ;
#118 = CARTESIAN_POINT ( 'NONE',  ( 4.119947979834897107E-13, -1.445083222993876641E-14, 118.0000000000000000 ) ) ;
#119 = FACE_OUTER_BOUND ( 'NONE', #76, .T. ) ;
#120 = VERTEX_POINT ( 'NONE', #220 ) ;
#121 = ORIENTED_EDGE ( 'NONE', *, *, #212, .F. ) ;
#122 = VERTEX_POINT ( 'NONE', #83 ) ;
#123 = PERSON_AND_ORGANIZATION ( #244, #240 ) ;
#124 = FACE_OUTER_BOUND ( 'NONE', #80, .T. ) ;
#125 = AXIS2_PLACEMENT_3D ( 'NONE', #153, #228, #229 ) ;
#126 = AXIS2_PLACEMENT_3D ( 'NONE', #27, #117, #93 ) ;
#127 = ORIENTED_EDGE ( 'NONE', *, *, #226, .T. ) ;
#128 = DIRECTION ( 'NONE',  ( 0.0000000000000000000, 0.0000000000000000000, 1.000000000000000000 ) ) ;
#129 = PRODUCT_DEFINITION_SHAPE ( 'NONE', 'NONE',  #139 ) ;
#130 = PERSON_AND_ORGANIZATION_ROLE ( 'classification_officer' ) ;
#131 = AXIS2_PLACEMENT_3D ( 'NONE', #201, #101, #32 ) ;
#132 = FACE_OUTER_BOUND ( 'NONE', #146, .T. ) ;
#133 = EDGE_LOOP ( 'NONE', ( #26 ) ) ;
#134 = DIRECTION ( 'NONE',  ( 0.0000000000000000000, 1.000000000000000000, 0.0000000000000000000 ) ) ;
#135 = CC_DESIGN_PERSON_AND_ORGANIZATION_ASSIGNMENT ( #6, #63, ( #257 ) ) ;
#136 = FACE_OUTER_BOUND ( 'NONE', #231, .T. ) ;
#137 = DIRECTION ( 'NONE',  ( -3.491481338843133355E-15, 4.327174794786742882E-16, -1.000000000000000000 ) ) ;
#138 = FACE_OUTER_BOUND ( 'NONE', #260, .T. ) ;
#139 = PRODUCT_DEFINITION ( 'UNKNOWN', '', #257, #199 ) ;
#140 = APPROVAL_STATUS ( 'not_yet_approved' ) ;
#141 = CARTESIAN_POINT ( 'NONE',  ( 5.210260651422795311E-15, -4.100000000000009415, 1.492277960491452005 ) ) ;
#142 = COORDINATED_UNIVERSAL_TIME_OFFSET ( 1, 0, .AHEAD. ) ;
#143 = APPLICATION_PROTOCOL_DEFINITION ( 'international standard', 'config_control_design', 1994, #197 ) ;
#144 = CIRCLE ( 'NONE', #18, 4.000000000000002665 ) ;
#145 = DATE_TIME_ROLE ( 'classification_date' ) ;
#146 = EDGE_LOOP ( 'NONE', ( #30 ) ) ;
#147 = CIRCLE ( 'NONE', #126, 4.100000000000009415 ) ;
#148 = COORDINATED_UNIVERSAL_TIME_OFFSET ( 1, 0, .AHEAD. ) ;
#149 = DIRECTION ( 'NONE',  ( 0.0000000000000000000, 1.000000000000000000, 0.0000000000000000000 ) ) ;
#150 = DIRECTION ( 'NONE',  ( -3.757912086609231984E-31, -1.000000000000000000, -1.057758217059026266E-16 ) ) ;
#151 = DIRECTION ( 'NONE',  ( 3.491481338843133355E-15, -1.224646799147353207E-16, 1.000000000000000000 ) ) ;
#152 = DIRECTION ( 'NONE',  ( 1.510825004591027679E-30, 1.000000000000000000, 4.327174794786742389E-16 ) ) ;
#153 = CARTESIAN_POINT ( 'NONE',  ( 1.860959553603390015E-13, 3.749399456654630335E-32, 53.29999999999999716 ) ) ;
#154 = EDGE_LOOP ( 'NONE', ( #177 ) ) ;
#155 = ADVANCED_FACE ( 'NONE', ( #115, #136 ), #34, .F. ) ;
#156 = CARTESIAN_POINT ( 'NONE',  ( 1.860959553603390015E-13, 3.749399456654630335E-32, 53.29999999999999716 ) ) ;
#157 = PERSON_AND_ORGANIZATION ( #244, #240 ) ;
#158 = CYLINDRICAL_SURFACE ( 'NONE', #131, 4.100000000000009415 ) ;
#159 = DATE_AND_TIME ( #55, #88 ) ;
#160 = VERTEX_POINT ( 'NONE', #56 ) ;
#161 = ORIENTED_EDGE ( 'NONE', *, *, #169, .T. ) ;
#162 = CARTESIAN_POINT ( 'NONE',  ( 4.085033166446465899E-13, 4.999999999999987566, 117.0000000000000000 ) ) ;
#163 = SHAPE_DEFINITION_REPRESENTATION ( #129, #81 ) ;
#164 = LOCAL_TIME ( 14, 57, 16.00000000000000000, #5 ) ;
#165 = ADVANCED_FACE ( 'NONE', ( #170 ), #28, .F. ) ;
#166 =( GEOMETRIC_REPRESENTATION_CONTEXT ( 3 ) GLOBAL_UNCERTAINTY_ASSIGNED_CONTEXT ( ( #108 ) ) GLOBAL_UNIT_ASSIGNED_CONTEXT ( ( #58, #31, #17 ) ) REPRESENTATION_CONTEXT ( 'NONE', 'WORKASPACE' ) );
#167 = DATE_AND_TIME ( #207, #164 ) ;
#168 = CARTESIAN_POINT ( 'NONE',  ( 2.164718430082742680E-13, -2.682848372767780587E-14, 62.00000000000000000 ) ) ;
#169 = EDGE_CURVE ( 'NONE', #160, #160, #147, .T. ) ;
#170 = FACE_OUTER_BOUND ( 'NONE', #51, .T. ) ;
#171 = DIRECTION ( 'NONE',  ( -3.491481338843133355E-15, 1.224646799147353207E-16, -1.000000000000000000 ) ) ;
#172 = CYLINDRICAL_SURFACE ( 'NONE', #187, 4.999999999999999112 ) ;
#173 = CC_DESIGN_PERSON_AND_ORGANIZATION_ASSIGNMENT ( #1, #178, ( #139 ) ) ;
#174 = DIRECTION ( 'NONE',  ( 3.491481338843133355E-15, -1.224646799147353207E-16, 1.000000000000000000 ) ) ;
#175 = APPROVAL_PERSON_ORGANIZATION ( #223, #85, #183 ) ;
#176 = MECHANICAL_CONTEXT ( 'NONE', #197, 'mechanical' ) ;
#177 = ORIENTED_EDGE ( 'NONE', *, *, #105, .F. ) ;
#178 = PERSON_AND_ORGANIZATION_ROLE ( 'creator' ) ;
#179 = EDGE_LOOP ( 'NONE', ( #208 ) ) ;
#180 = VERTEX_POINT ( 'NONE', #36 ) ;
#181 = CIRCLE ( 'NONE', #45, 4.100000000000009415 ) ;
#182 = APPROVAL_DATE_TIME ( #159, #21 ) ;
#183 = APPROVAL_ROLE ( '' ) ;
#184 = ADVANCED_FACE ( 'NONE', ( #216 ), #98, .T. ) ;
#185 = ORIENTED_EDGE ( 'NONE', *, *, #12, .F. ) ;
#186 = AXIS2_PLACEMENT_3D ( 'NONE', #190, #68, #210 ) ;
#187 = AXIS2_PLACEMENT_3D ( 'NONE', #69, #193, #13 ) ;
#188 = EDGE_LOOP ( 'NONE', ( #205 ) ) ;
#189 = DIRECTION ( 'NONE',  ( -3.491481338843133355E-15, 1.224646799147353207E-16, -1.000000000000000000 ) ) ;
#190 = CARTESIAN_POINT ( 'NONE',  ( 1.860959553603390015E-13, -2.306384165621333925E-14, 53.29999999999999716 ) ) ;
#191 = CARTESIAN_POINT ( 'NONE',  ( 5.210260651422796889E-15, -1.827513427753997891E-16, 1.492277960491452449 ) ) ;
#192 = DIRECTION ( 'NONE',  ( 0.0000000000000000000, 1.000000000000000000, 0.0000000000000000000 ) ) ;
#193 = DIRECTION ( 'NONE',  ( -3.491481338843133355E-15, 1.224646799147353207E-16, -1.000000000000000000 ) ) ;
#194 = CARTESIAN_POINT ( 'NONE',  ( 4.119947979834897107E-13, 2.999519565323694963E-32, 118.0000000000000000 ) ) ;
#195 = CIRCLE ( 'NONE', #79, 5.000000000000002665 ) ;
#196 = PERSON_AND_ORGANIZATION_ROLE ( 'design_owner' ) ;
#197 = APPLICATION_CONTEXT ( 'configuration controlled 3d designs of mechanical parts and assemblies' ) ;
#198 = EDGE_CURVE ( 'NONE', #75, #75, #144, .T. ) ;
#199 = DESIGN_CONTEXT ( 'detailed design', #241, 'design' ) ;
#200 = EDGE_LOOP ( 'NONE', ( #206 ) ) ;
#201 = CARTESIAN_POINT ( 'NONE',  ( 0.0000000000000000000, 0.0000000000000000000, 0.0000000000000000000 ) ) ;
#202 = MANIFOLD_SOLID_BREP ( 'Corps-Déplacer/Copier1[1]', #78 ) ;
#203 = APPROVAL_DATE_TIME ( #225, #85 ) ;
#204 = CC_DESIGN_DATE_AND_TIME_ASSIGNMENT ( #82, #60, ( #139 ) ) ;
#205 = ORIENTED_EDGE ( 'NONE', *, *, #3, .T. ) ;
#206 = ORIENTED_EDGE ( 'NONE', *, *, #212, .T. ) ;
#207 = CALENDAR_DATE ( 2021, 13, 10 ) ;
#208 = ORIENTED_EDGE ( 'NONE', *, *, #3, .F. ) ;
#209 = CC_DESIGN_APPROVAL ( #85, ( #257 ) ) ;
#210 = DIRECTION ( 'NONE',  ( 0.0000000000000000000, -1.000000000000000000, 0.0000000000000000000 ) ) ;
#211 = CARTESIAN_POINT ( 'NONE',  ( 2.241280342455609021E-13, -2.777735541080789517E-14, 64.19282032302754715 ) ) ;
#212 = EDGE_CURVE ( 'NONE', #14, #14, #181, .T. ) ;
#213 = CARTESIAN_POINT ( 'NONE',  ( 2.147261023388527077E-13, -2.688821387764050996E-14, 61.50000000000000000 ) ) ;
#214 = DIRECTION ( 'NONE',  ( 1.510825004591027679E-30, 1.000000000000000000, 4.327174794786742882E-16 ) ) ;
#215 = AXIS2_PLACEMENT_3D ( 'NONE', #9, #174, #256 ) ;
#216 = FACE_OUTER_BOUND ( 'NONE', #200, .T. ) ;
#217 = APPROVAL_PERSON_ORGANIZATION ( #242, #4, #246 ) ;
#218 = CARTESIAN_POINT ( 'NONE',  ( 2.211043227092833725E-13, -2.740261108091777535E-14, 63.32679491924307769 ) ) ;
#219 = ADVANCED_FACE ( 'NONE', ( #253, #138 ), #172, .T. ) ;
#220 = CARTESIAN_POINT ( 'NONE',  ( 1.860959553603390015E-13, -4.100000000000032507, 53.29999999999999716 ) ) ;
#221 = FACE_OUTER_BOUND ( 'NONE', #179, .T. ) ;
#222 = PRODUCT ( '960187', '960187', '', ( #176 ) ) ;
#223 = PERSON_AND_ORGANIZATION ( #244, #240 ) ;
#224 = AXIS2_PLACEMENT_3D ( 'NONE', #194, #54, #247 ) ;
#225 = DATE_AND_TIME ( #107, #62 ) ;
#226 = EDGE_CURVE ( 'NONE', #96, #96, #111, .T. ) ;
#227 = DIRECTION ( 'NONE',  ( 0.0000000000000000000, -1.000000000000000000, 0.0000000000000000000 ) ) ;
#228 = DIRECTION ( 'NONE',  ( 3.491481338843133355E-15, -1.224646799147353207E-16, 1.000000000000000000 ) ) ;
#229 = DIRECTION ( 'NONE',  ( -4.275831445896958607E-31, -1.000000000000000000, -1.224646799147353207E-16 ) ) ;
#230 = DIRECTION ( 'NONE',  ( -3.491481338843133355E-15, 4.327174794786742882E-16, -1.000000000000000000 ) ) ;
#231 = EDGE_LOOP ( 'NONE', ( #15 ) ) ;
#232 = AXIS2_PLACEMENT_3D ( 'NONE', #168, #137, #192 ) ;
#233 = AXIS2_PLACEMENT_3D ( 'NONE', #238, #128, #239 ) ;
#234 = DIRECTION ( 'NONE',  ( -4.275831445896958607E-31, -1.000000000000000000, -1.224646799147353207E-16 ) ) ;
#235 = APPROVAL_ROLE ( '' ) ;
#236 = VERTEX_POINT ( 'NONE', #162 ) ;
#237 = ADVANCED_FACE ( 'NONE', ( #44, #132 ), #23, .T. ) ;
#238 = CARTESIAN_POINT ( 'NONE',  ( 0.0000000000000000000, 0.0000000000000000000, 0.0000000000000000000 ) ) ;
#239 = DIRECTION ( 'NONE',  ( 1.000000000000000000, 0.0000000000000000000, 0.0000000000000000000 ) ) ;
#240 = ORGANIZATION ( 'UNSPECIFIED', 'UNSPECIFIED', '' ) ;
#241 = APPLICATION_CONTEXT ( 'configuration controlled 3d designs of mechanical parts and assemblies' ) ;
#242 = PERSON_AND_ORGANIZATION ( #244, #240 ) ;
#243 = CC_DESIGN_PERSON_AND_ORGANIZATION_ASSIGNMENT ( #104, #40, ( #257 ) ) ;
#244 = PERSON ( 'UNSPECIFIED', 'UNSPECIFIED', 'UNSPECIFIED', ('UNSPECIFIED'), ('UNSPECIFIED'), ('UNSPECIFIED') ) ;
#245 = ADVANCED_FACE ( 'NONE', ( #124, #221 ), #158, .T. ) ;
#246 = APPROVAL_ROLE ( '' ) ;
#247 = DIRECTION ( 'NONE',  ( 4.275831445896958607E-31, 1.000000000000000000, 1.224646799147353207E-16 ) ) ;
#248 = EDGE_LOOP ( 'NONE', ( #121 ) ) ;
#249 = CARTESIAN_POINT ( 'NONE',  ( 2.147261023388527077E-13, -2.661212498793847030E-14, 61.50000000000000000 ) ) ;
#250 = AXIS2_PLACEMENT_3D ( 'NONE', #249, #24, #149 ) ;
#251 = DIRECTION ( 'NONE',  ( 0.0000000000000000000, -1.000000000000000000, 0.0000000000000000000 ) ) ;
#252 = EDGE_LOOP ( 'NONE', ( #127 ) ) ;
#253 = FACE_OUTER_BOUND ( 'NONE', #252, .T. ) ;
#254 = FACE_OUTER_BOUND ( 'NONE', #154, .T. ) ;
#255 = EDGE_LOOP ( 'NONE', ( #185 ) ) ;
#256 = DIRECTION ( 'NONE',  ( -4.622231866529377433E-31, -1.000000000000000000, -1.301042606982608526E-16 ) ) ;
#257 = PRODUCT_DEFINITION_FORMATION_WITH_SPECIFIED_SOURCE ( 'ANY', '', #222, .NOT_KNOWN. ) ;
#258 = CC_DESIGN_DATE_AND_TIME_ASSIGNMENT ( #167, #145, ( #16 ) ) ;
#259 = ORIENTED_EDGE ( 'NONE', *, *, #169, .F. ) ;
#260 = EDGE_LOOP ( 'NONE', ( #112 ) ) ;
#261 = APPLICATION_PROTOCOL_DEFINITION ( 'international standard', 'config_control_design', 1994, #241 ) ;
#262 = AXIS2_PLACEMENT_3D ( 'NONE', #213, #11, #214 ) ;
#263 = CARTESIAN_POINT ( 'NONE',  ( 2.211043227092833725E-13, -5.000000000000026645, 63.32679491924307769 ) ) ;
ENDSEC;
END-ISO-10303-21;
