ISO-10303-21;
HEADER;
FILE_DESCRIPTION (( 'STEP AP203' ),
    '1' );
FILE_NAME ('960186.step',
    '2021-10-13T12:57:16',
    ( '' ),
    ( '' ),
    'SwSTEP 2.0',
    'SolidWorks 2019',
    '' );
FILE_SCHEMA (( 'CONFIG_CONTROL_DESIGN' ));
ENDSEC;

DATA;
#1 = PRODUCT_DEFINITION_FORMATION_WITH_SPECIFIED_SOURCE ( 'ANY', '', #82, .NOT_KNOWN. ) ;
#2 = PRODUCT_RELATED_PRODUCT_CATEGORY ( 'detail', '', ( #82 ) ) ;
#3 = FACE_OUTER_BOUND ( 'NONE', #147, .T. ) ;
#4 = PERSON_AND_ORGANIZATION_ROLE ( 'creator' ) ;
#5 = DIRECTION ( 'NONE',  ( -3.491481338843133355E-15, 1.224646799147353207E-16, -1.000000000000000000 ) ) ;
#6 = DATE_AND_TIME ( #74, #118 ) ;
#7 = ORIENTED_EDGE ( 'NONE', *, *, #174, .F. ) ;
#8 = DATE_AND_TIME ( #85, #21 ) ;
#9 = DIRECTION ( 'NONE',  ( 0.0000000000000000000, 1.000000000000000000, 0.0000000000000000000 ) ) ;
#10 = ADVANCED_FACE ( 'NONE', ( #86 ), #30, .F. ) ;
#11 = CARTESIAN_POINT ( 'NONE',  ( 0.0000000000000000000, 0.0000000000000000000, 0.0000000000000000000 ) ) ;
#12 = CARTESIAN_POINT ( 'NONE',  ( 5.083181123339291296E-15, 3.999999999999989786, 1.455880937064825131 ) ) ;
#13 = APPROVAL_PERSON_ORGANIZATION ( #52, #63, #19 ) ;
#14 = DATE_AND_TIME ( #181, #89 ) ;
#15 = CIRCLE ( 'NONE', #46, 3.999999999999995559 ) ;
#16 = CARTESIAN_POINT ( 'NONE',  ( 5.083181123339289718E-15, -1.782939929516086737E-16, 1.455880937064824687 ) ) ;
#17 = COORDINATED_UNIVERSAL_TIME_OFFSET ( 1, 0, .AHEAD. ) ;
#18 = CARTESIAN_POINT ( 'NONE',  ( 1.815570296198429345E-13, -6.368163355566236381E-15, 52.00000000000000000 ) ) ;
#19 = APPROVAL_ROLE ( '' ) ;
#20 = SECURITY_CLASSIFICATION ( '', '', #54 ) ;
#21 = LOCAL_TIME ( 14, 57, 16.00000000000000000, #153 ) ;
#22 = DIRECTION ( 'NONE',  ( 3.491481338843133355E-15, -1.224646799147353207E-16, 1.000000000000000000 ) ) ;
#23 = DIRECTION ( 'NONE',  ( 0.0000000000000000000, 1.000000000000000000, 0.0000000000000000000 ) ) ;
#24 = EDGE_LOOP ( 'NONE', ( #152 ) ) ;
#25 = APPLICATION_CONTEXT ( 'configuration controlled 3d designs of mechanical parts and assemblies' ) ;
#26 = VERTEX_POINT ( 'NONE', #188 ) ;
#27 = CARTESIAN_POINT ( 'NONE',  ( 1.815570296198429345E-13, 3.999999999999989786, 52.00000000000000000 ) ) ;
#28 = CC_DESIGN_DATE_AND_TIME_ASSIGNMENT ( #84, #50, ( #20 ) ) ;
#29 = AXIS2_PLACEMENT_3D ( 'NONE', #169, #67, #23 ) ;
#30 = PLANE ( 'NONE',  #172 ) ;
#31 = APPROVAL_DATE_TIME ( #14, #177 ) ;
#32 = CC_DESIGN_APPROVAL ( #177, ( #80 ) ) ;
#33 = FACE_OUTER_BOUND ( 'NONE', #73, .T. ) ;
#34 = APPROVAL ( #120, 'UNSPECIFIED' ) ;
#35 = CALENDAR_DATE ( 2021, 13, 10 ) ;
#36 = APPLICATION_CONTEXT ( 'configuration controlled 3d designs of mechanical parts and assemblies' ) ;
#37 = EDGE_LOOP ( 'NONE', ( #75 ) ) ;
#38 = CARTESIAN_POINT ( 'NONE',  ( 1.815570296198429345E-13, 2.999519565323702626E-32, 52.00000000000000000 ) ) ;
#39 = DIRECTION ( 'NONE',  ( 3.491481338843133355E-15, -1.224646799147353207E-16, 1.000000000000000000 ) ) ;
#40 = VERTEX_POINT ( 'NONE', #12 ) ;
#41 =( NAMED_UNIT ( * ) SI_UNIT ( $, .STERADIAN. ) SOLID_ANGLE_UNIT ( ) );
#42 = CARTESIAN_POINT ( 'NONE',  ( 3.561310965619995770E-13, 3.199999999999989964, 102.0000000000000000 ) ) ;
#43 = ADVANCED_FACE ( 'NONE', ( #167, #33 ), #139, .T. ) ;
#44 = CC_DESIGN_PERSON_AND_ORGANIZATION_ASSIGNMENT ( #79, #141, ( #82 ) ) ;
#45 = MANIFOLD_SOLID_BREP ( 'Corps-Déplacer/Copier1[1]', #65 ) ;
#46 = AXIS2_PLACEMENT_3D ( 'NONE', #71, #53, #119 ) ;
#47 = APPROVAL_PERSON_ORGANIZATION ( #69, #34, #105 ) ;
#48 = EDGE_LOOP ( 'NONE', ( #194 ) ) ;
#49 = SHAPE_DEFINITION_REPRESENTATION ( #187, #66 ) ;
#50 = DATE_TIME_ROLE ( 'classification_date' ) ;
#51 = CONICAL_SURFACE ( 'NONE', #29, 3.200000000000002842, 0.7853981633974420618 ) ;
#52 = PERSON_AND_ORGANIZATION ( #186, #61 ) ;
#53 = DIRECTION ( 'NONE',  ( -3.491481338843133355E-15, 1.224646799147353207E-16, -1.000000000000000000 ) ) ;
#54 = SECURITY_CLASSIFICATION_LEVEL ( 'unclassified' ) ;
#55 = CARTESIAN_POINT ( 'NONE',  ( 1.815570296198429345E-13, 2.999519565323702626E-32, 52.00000000000000000 ) ) ;
#56 = DIRECTION ( 'NONE',  ( 3.851859888774481340E-31, 1.000000000000000000, 1.084202172485507146E-16 ) ) ;
#57 = AXIS2_PLACEMENT_3D ( 'NONE', #11, #201, #173 ) ;
#58 = EDGE_LOOP ( 'NONE', ( #7 ) ) ;
#59 = DESIGN_CONTEXT ( 'detailed design', #36, 'design' ) ;
#60 = VERTEX_POINT ( 'NONE', #27 ) ;
#61 = ORGANIZATION ( 'UNSPECIFIED', 'UNSPECIFIED', '' ) ;
#62 = VERTEX_POINT ( 'NONE', #42 ) ;
#63 = APPROVAL ( #87, 'UNSPECIFIED' ) ;
#64 = PLANE ( 'NONE',  #159 ) ;
#65 = CLOSED_SHELL ( 'NONE', ( #10, #199, #145, #170 ) ) ;
#66 = ADVANCED_BREP_SHAPE_REPRESENTATION ( '960186', ( #45, #175, #126 ), #107 ) ;
#67 = DIRECTION ( 'NONE',  ( -3.491481338843133355E-15, 1.224646799147353207E-16, -1.000000000000000000 ) ) ;
#68 = CC_DESIGN_PERSON_AND_ORGANIZATION_ASSIGNMENT ( #116, #135, ( #1 ) ) ;
#69 = PERSON_AND_ORGANIZATION ( #186, #61 ) ;
#70 = CLOSED_SHELL ( 'NONE', ( #43, #108, #131 ) ) ;
#71 = CARTESIAN_POINT ( 'NONE',  ( 1.815570296198429345E-13, -6.368163355566236381E-15, 52.00000000000000000 ) ) ;
#72 = APPROVAL_DATE_TIME ( #6, #63 ) ;
#73 = EDGE_LOOP ( 'NONE', ( #198 ) ) ;
#74 = CALENDAR_DATE ( 2021, 13, 10 ) ;
#75 = ORIENTED_EDGE ( 'NONE', *, *, #143, .F. ) ;
#76 = UNCERTAINTY_MEASURE_WITH_UNIT (LENGTH_MEASURE( 1.000000000000000082E-05 ), #95, 'distance_accuracy_value', 'NONE');
#77 = EDGE_CURVE ( 'NONE', #62, #62, #117, .T. ) ;
#78 = CARTESIAN_POINT ( 'NONE',  ( 3.533379114909250198E-13, -1.239342560737121245E-14, 101.1999999999999886 ) ) ;
#79 = PERSON_AND_ORGANIZATION ( #186, #61 ) ;
#80 = PRODUCT_DEFINITION ( 'UNKNOWN', '', #1, #59 ) ;
#81 = DIRECTION ( 'NONE',  ( -3.491481338843133355E-15, 1.224646799147353207E-16, -1.000000000000000000 ) ) ;
#82 = PRODUCT ( '960186', '960186', '', ( #125 ) ) ;
#83 = FACE_OUTER_BOUND ( 'NONE', #115, .T. ) ;
#84 = DATE_AND_TIME ( #35, #146 ) ;
#85 = CALENDAR_DATE ( 2021, 13, 10 ) ;
#86 = FACE_OUTER_BOUND ( 'NONE', #48, .T. ) ;
#87 = APPROVAL_STATUS ( 'not_yet_approved' ) ;
#88 = FACE_OUTER_BOUND ( 'NONE', #176, .T. ) ;
#89 = LOCAL_TIME ( 14, 57, 16.00000000000000000, #195 ) ;
#90 = COORDINATED_UNIVERSAL_TIME_OFFSET ( 1, 0, .AHEAD. ) ;
#91 = FACE_OUTER_BOUND ( 'NONE', #24, .T. ) ;
#92 = CIRCLE ( 'NONE', #189, 3.999999999999989786 ) ;
#93 = CARTESIAN_POINT ( 'NONE',  ( 0.0000000000000000000, 0.0000000000000000000, 0.0000000000000000000 ) ) ;
#94 = DIRECTION ( 'NONE',  ( 4.275831445896958607E-31, 1.000000000000000000, 1.224646799147353207E-16 ) ) ;
#95 =( LENGTH_UNIT ( ) NAMED_UNIT ( * ) SI_UNIT ( .MILLI., .METRE. ) );
#96 = EDGE_CURVE ( 'NONE', #26, #26, #179, .T. ) ;
#97 = AXIS2_PLACEMENT_3D ( 'NONE', #121, #182, #150 ) ;
#98 = AXIS2_PLACEMENT_3D ( 'NONE', #78, #81, #124 ) ;
#99 = EDGE_CURVE ( 'NONE', #40, #40, #92, .T. ) ;
#100 = CARTESIAN_POINT ( 'NONE',  ( 0.0000000000000000000, 0.0000000000000000000, 0.0000000000000000000 ) ) ;
#101 = DATE_TIME_ROLE ( 'creation_date' ) ;
#102 = AXIS2_PLACEMENT_3D ( 'NONE', #18, #133, #9 ) ;
#103 = ORIENTED_EDGE ( 'NONE', *, *, #99, .F. ) ;
#104 = AXIS2_PLACEMENT_3D ( 'NONE', #100, #136, #160 ) ;
#105 = APPROVAL_ROLE ( '' ) ;
#106 = FACE_BOUND ( 'NONE', #183, .T. ) ;
#107 =( GEOMETRIC_REPRESENTATION_CONTEXT ( 3 ) GLOBAL_UNCERTAINTY_ASSIGNED_CONTEXT ( ( #76 ) ) GLOBAL_UNIT_ASSIGNED_CONTEXT ( ( #95, #185, #41 ) ) REPRESENTATION_CONTEXT ( 'NONE', 'WORKASPACE' ) );
#108 = ADVANCED_FACE ( 'NONE', ( #88 ), #122, .T. ) ;
#109 = FACE_OUTER_BOUND ( 'NONE', #58, .T. ) ;
#110 = EDGE_LOOP ( 'NONE', ( #103 ) ) ;
#111 = APPLICATION_PROTOCOL_DEFINITION ( 'international standard', 'config_control_design', 1994, #25 ) ;
#112 = VERTEX_POINT ( 'NONE', #144 ) ;
#113 = AXIS2_PLACEMENT_3D ( 'NONE', #38, #22, #196 ) ;
#114 = CC_DESIGN_APPROVAL ( #63, ( #1 ) ) ;
#115 = EDGE_LOOP ( 'NONE', ( #130 ) ) ;
#116 = PERSON_AND_ORGANIZATION ( #186, #61 ) ;
#117 = CIRCLE ( 'NONE', #162, 3.200000000000002842 ) ;
#118 = LOCAL_TIME ( 14, 57, 16.00000000000000000, #151 ) ;
#119 = DIRECTION ( 'NONE',  ( 0.0000000000000000000, 1.000000000000000000, 0.0000000000000000000 ) ) ;
#120 = APPROVAL_STATUS ( 'not_yet_approved' ) ;
#121 = CARTESIAN_POINT ( 'NONE',  ( 5.083181123339289718E-15, -1.782939929516086737E-16, 1.455880937064824687 ) ) ;
#122 = PLANE ( 'NONE',  #113 ) ;
#123 = DIRECTION ( 'NONE',  ( 0.0000000000000000000, 1.000000000000000000, 0.0000000000000000000 ) ) ;
#124 = DIRECTION ( 'NONE',  ( 0.0000000000000000000, 1.000000000000000000, 0.0000000000000000000 ) ) ;
#125 = MECHANICAL_CONTEXT ( 'NONE', #25, 'mechanical' ) ;
#126 = AXIS2_PLACEMENT_3D ( 'NONE', #93, #203, #155 ) ;
#127 = FACE_OUTER_BOUND ( 'NONE', #37, .T. ) ;
#128 = CC_DESIGN_PERSON_AND_ORGANIZATION_ASSIGNMENT ( #192, #132, ( #20 ) ) ;
#129 = CC_DESIGN_SECURITY_CLASSIFICATION ( #20, ( #1 ) ) ;
#130 = ORIENTED_EDGE ( 'NONE', *, *, #174, .T. ) ;
#131 = ADVANCED_FACE ( 'NONE', ( #3 ), #164, .T. ) ;
#132 = PERSON_AND_ORGANIZATION_ROLE ( 'classification_officer' ) ;
#133 = DIRECTION ( 'NONE',  ( -3.491481338843133355E-15, 1.224646799147353207E-16, -1.000000000000000000 ) ) ;
#134 = CC_DESIGN_APPROVAL ( #34, ( #20 ) ) ;
#135 = PERSON_AND_ORGANIZATION_ROLE ( 'design_supplier' ) ;
#136 = DIRECTION ( 'NONE',  ( -3.491481338843133355E-15, 1.224646799147353207E-16, -1.000000000000000000 ) ) ;
#137 = APPROVAL_DATE_TIME ( #8, #34 ) ;
#138 = DIRECTION ( 'NONE',  ( -4.275831445896958607E-31, -1.000000000000000000, -1.224646799147353207E-16 ) ) ;
#139 = CYLINDRICAL_SURFACE ( 'NONE', #104, 3.999999999999993339 ) ;
#140 = DIRECTION ( 'NONE',  ( -3.491481338843133355E-15, 1.224646799147353207E-16, -1.000000000000000000 ) ) ;
#141 = PERSON_AND_ORGANIZATION_ROLE ( 'design_owner' ) ;
#142 = CIRCLE ( 'NONE', #98, 4.000000000000001776 ) ;
#143 = EDGE_CURVE ( 'NONE', #60, #60, #15, .T. ) ;
#144 = CARTESIAN_POINT ( 'NONE',  ( 3.533379114909250198E-13, 3.999999999999989786, 101.1999999999999886 ) ) ;
#145 = ADVANCED_FACE ( 'NONE', ( #109, #106 ), #51, .T. ) ;
#146 = LOCAL_TIME ( 14, 57, 16.00000000000000000, #90 ) ;
#147 = EDGE_LOOP ( 'NONE', ( #191 ) ) ;
#148 = CALENDAR_DATE ( 2021, 13, 10 ) ;
#149 = APPROVAL_ROLE ( '' ) ;
#150 = DIRECTION ( 'NONE',  ( -3.851859888774481340E-31, -1.000000000000000000, -1.084202172485507146E-16 ) ) ;
#151 = COORDINATED_UNIVERSAL_TIME_OFFSET ( 1, 0, .AHEAD. ) ;
#152 = ORIENTED_EDGE ( 'NONE', *, *, #77, .F. ) ;
#153 = COORDINATED_UNIVERSAL_TIME_OFFSET ( 1, 0, .AHEAD. ) ;
#154 = CARTESIAN_POINT ( 'NONE',  ( 3.561310965619995770E-13, -1.249139735130300089E-14, 102.0000000000000000 ) ) ;
#155 = DIRECTION ( 'NONE',  ( 1.000000000000000000, 0.0000000000000000000, 0.0000000000000000000 ) ) ;
#156 = LOCAL_TIME ( 14, 57, 16.00000000000000000, #17 ) ;
#157 = CYLINDRICAL_SURFACE ( 'NONE', #57, 3.999999999999998224 ) ;
#158 = CC_DESIGN_PERSON_AND_ORGANIZATION_ASSIGNMENT ( #193, #197, ( #1 ) ) ;
#159 = AXIS2_PLACEMENT_3D ( 'NONE', #184, #140, #94 ) ;
#160 = DIRECTION ( 'NONE',  ( 4.275831445896958607E-31, 1.000000000000000000, 1.224646799147353207E-16 ) ) ;
#161 = PERSON_AND_ORGANIZATION ( #186, #61 ) ;
#162 = AXIS2_PLACEMENT_3D ( 'NONE', #154, #200, #123 ) ;
#163 = CC_DESIGN_DATE_AND_TIME_ASSIGNMENT ( #178, #101, ( #80 ) ) ;
#164 = CONICAL_SURFACE ( 'NONE', #97, 3.999999999999989786, 1.221730476396026610 ) ;
#165 = PERSON_AND_ORGANIZATION ( #186, #61 ) ;
#166 = APPROVAL_STATUS ( 'not_yet_approved' ) ;
#167 = FACE_OUTER_BOUND ( 'NONE', #110, .T. ) ;
#168 = APPLICATION_PROTOCOL_DEFINITION ( 'international standard', 'config_control_design', 1994, #36 ) ;
#169 = CARTESIAN_POINT ( 'NONE',  ( 3.561310965619995770E-13, -1.249139735130300089E-14, 102.0000000000000000 ) ) ;
#170 = ADVANCED_FACE ( 'NONE', ( #91 ), #64, .F. ) ;
#171 = ORIENTED_EDGE ( 'NONE', *, *, #77, .T. ) ;
#172 = AXIS2_PLACEMENT_3D ( 'NONE', #55, #39, #138 ) ;
#173 = DIRECTION ( 'NONE',  ( 4.275831445896958607E-31, 1.000000000000000000, 1.224646799147353207E-16 ) ) ;
#174 = EDGE_CURVE ( 'NONE', #112, #112, #142, .T. ) ;
#175 = MANIFOLD_SOLID_BREP ( 'Corps-Déplacer/Copier1[2]', #70 ) ;
#176 = EDGE_LOOP ( 'NONE', ( #180 ) ) ;
#177 = APPROVAL ( #166, 'UNSPECIFIED' ) ;
#178 = DATE_AND_TIME ( #148, #156 ) ;
#179 = CIRCLE ( 'NONE', #102, 3.999999999999995559 ) ;
#180 = ORIENTED_EDGE ( 'NONE', *, *, #96, .F. ) ;
#181 = CALENDAR_DATE ( 2021, 13, 10 ) ;
#182 = DIRECTION ( 'NONE',  ( 3.491481338843133355E-15, -1.224646799147353207E-16, 1.000000000000000000 ) ) ;
#183 = EDGE_LOOP ( 'NONE', ( #171 ) ) ;
#184 = CARTESIAN_POINT ( 'NONE',  ( 3.561310965619995770E-13, 2.399615652258955477E-32, 102.0000000000000000 ) ) ;
#185 =( NAMED_UNIT ( * ) PLANE_ANGLE_UNIT ( ) SI_UNIT ( $, .RADIAN. ) );
#186 = PERSON ( 'UNSPECIFIED', 'UNSPECIFIED', 'UNSPECIFIED', ('UNSPECIFIED'), ('UNSPECIFIED'), ('UNSPECIFIED') ) ;
#187 = PRODUCT_DEFINITION_SHAPE ( 'NONE', 'NONE',  #80 ) ;
#188 = CARTESIAN_POINT ( 'NONE',  ( 1.815570296198429345E-13, 3.999999999999989786, 52.00000000000000000 ) ) ;
#189 = AXIS2_PLACEMENT_3D ( 'NONE', #16, #5, #56 ) ;
#190 = CC_DESIGN_PERSON_AND_ORGANIZATION_ASSIGNMENT ( #161, #4, ( #80 ) ) ;
#191 = ORIENTED_EDGE ( 'NONE', *, *, #99, .T. ) ;
#192 = PERSON_AND_ORGANIZATION ( #186, #61 ) ;
#193 = PERSON_AND_ORGANIZATION ( #186, #61 ) ;
#194 = ORIENTED_EDGE ( 'NONE', *, *, #143, .T. ) ;
#195 = COORDINATED_UNIVERSAL_TIME_OFFSET ( 1, 0, .AHEAD. ) ;
#196 = DIRECTION ( 'NONE',  ( -4.275831445896958607E-31, -1.000000000000000000, -1.224646799147353207E-16 ) ) ;
#197 = PERSON_AND_ORGANIZATION_ROLE ( 'creator' ) ;
#198 = ORIENTED_EDGE ( 'NONE', *, *, #96, .T. ) ;
#199 = ADVANCED_FACE ( 'NONE', ( #127, #83 ), #157, .T. ) ;
#200 = DIRECTION ( 'NONE',  ( -3.491481338843133355E-15, 1.224646799147353207E-16, -1.000000000000000000 ) ) ;
#201 = DIRECTION ( 'NONE',  ( -3.491481338843133355E-15, 1.224646799147353207E-16, -1.000000000000000000 ) ) ;
#202 = APPROVAL_PERSON_ORGANIZATION ( #165, #177, #149 ) ;
#203 = DIRECTION ( 'NONE',  ( 0.0000000000000000000, 0.0000000000000000000, 1.000000000000000000 ) ) ;
ENDSEC;
END-ISO-10303-21;
