ISO-10303-21;
HEADER;
FILE_DESCRIPTION (( 'STEP AP203' ),
    '1' );
FILE_NAME ('960185.step',
    '2021-10-13T12:57:15',
    ( '' ),
    ( '' ),
    'SwSTEP 2.0',
    'SolidWorks 2019',
    '' );
FILE_SCHEMA (( 'CONFIG_CONTROL_DESIGN' ));
ENDSEC;

DATA;
#1 = FACE_OUTER_BOUND ( 'NONE', #157, .T. ) ;
#2 = APPROVAL_STATUS ( 'not_yet_approved' ) ;
#3 = MANIFOLD_SOLID_BREP ( 'Corps-Déplacer/Copier1[2]', #180 ) ;
#4 = APPROVAL_DATE_TIME ( #108, #104 ) ;
#5 = DIRECTION ( 'NONE',  ( -3.491481338843133355E-15, 1.224646799147353207E-16, -1.000000000000000000 ) ) ;
#6 = PERSON_AND_ORGANIZATION_ROLE ( 'design_supplier' ) ;
#7 = SHAPE_DEFINITION_REPRESENTATION ( #38, #144 ) ;
#8 = CIRCLE ( 'NONE', #106, 3.900000000000008793 ) ;
#9 = CIRCLE ( 'NONE', #228, 4.000000000000001776 ) ;
#10 = DIRECTION ( 'NONE',  ( -3.491481338843133355E-15, 4.327174794786742882E-16, -1.000000000000000000 ) ) ;
#11 = EDGE_LOOP ( 'NONE', ( #138 ) ) ;
#12 = CARTESIAN_POINT ( 'NONE',  ( 3.561310965619995770E-13, -1.249139735130300089E-14, 102.0000000000000000 ) ) ;
#13 = ORIENTED_EDGE ( 'NONE', *, *, #183, .T. ) ;
#14 = AXIS2_PLACEMENT_3D ( 'NONE', #91, #10, #86 ) ;
#15 = ADVANCED_FACE ( 'NONE', ( #135 ), #35, .T. ) ;
#16 = DIRECTION ( 'NONE',  ( -4.275831445896958607E-31, -1.000000000000000000, -1.224646799147353207E-16 ) ) ;
#17 = DIRECTION ( 'NONE',  ( 4.275831445896958607E-31, 1.000000000000000000, 1.224646799147353207E-16 ) ) ;
#18 = CONICAL_SURFACE ( 'NONE', #44, 3.200000000000002842, 0.7853981633974420618 ) ;
#19 = FACE_OUTER_BOUND ( 'NONE', #48, .T. ) ;
#20 = EDGE_CURVE ( 'NONE', #113, #113, #8, .T. ) ;
#21 = PERSON_AND_ORGANIZATION ( #47, #125 ) ;
#22 = FACE_OUTER_BOUND ( 'NONE', #11, .T. ) ;
#23 = APPROVAL_ROLE ( '' ) ;
#24 = COORDINATED_UNIVERSAL_TIME_OFFSET ( 1, 0, .AHEAD. ) ;
#25 = CYLINDRICAL_SURFACE ( 'NONE', #217, 3.900000000000008793 ) ;
#26 = PERSON_AND_ORGANIZATION_ROLE ( 'design_owner' ) ;
#27 = CARTESIAN_POINT ( 'NONE',  ( 2.057735597542506994E-13, 3.999999999999973355, 58.93588989435402681 ) ) ;
#28 = DIRECTION ( 'NONE',  ( 0.0000000000000000000, -1.000000000000000000, 0.0000000000000000000 ) ) ;
#29 = CC_DESIGN_DATE_AND_TIME_ASSIGNMENT ( #192, #184, ( #116 ) ) ;
#30 = EDGE_LOOP ( 'NONE', ( #222 ) ) ;
#31 = EDGE_LOOP ( 'NONE', ( #88 ) ) ;
#32 =( LENGTH_UNIT ( ) NAMED_UNIT ( * ) SI_UNIT ( .MILLI., .METRE. ) );
#33 = PLANE ( 'NONE',  #164 ) ;
#34 = PRODUCT_DEFINITION ( 'UNKNOWN', '', #72, #78 ) ;
#35 = CONICAL_SURFACE ( 'NONE', #82, 3.999999999999989786, 1.221730476396026610 ) ;
#36 = EDGE_CURVE ( 'NONE', #114, #114, #112, .T. ) ;
#37 = CARTESIAN_POINT ( 'NONE',  ( 0.0000000000000000000, 0.0000000000000000000, 0.0000000000000000000 ) ) ;
#38 = PRODUCT_DEFINITION_SHAPE ( 'NONE', 'NONE',  #34 ) ;
#39 = LOCAL_TIME ( 14, 57, 15.00000000000000000, #186 ) ;
#40 = CALENDAR_DATE ( 2021, 13, 10 ) ;
#41 = CALENDAR_DATE ( 2021, 13, 10 ) ;
#42 = DIRECTION ( 'NONE',  ( -3.491481338843133355E-15, 4.327174794786742882E-16, -1.000000000000000000 ) ) ;
#43 = CARTESIAN_POINT ( 'NONE',  ( 1.770181038793468674E-13, -3.900000000000030997, 50.70000000000000284 ) ) ;
#44 = AXIS2_PLACEMENT_3D ( 'NONE', #159, #179, #136 ) ;
#45 = ORIENTED_EDGE ( 'NONE', *, *, #148, .F. ) ;
#46 = AXIS2_PLACEMENT_3D ( 'NONE', #109, #149, #226 ) ;
#47 = PERSON ( 'UNSPECIFIED', 'UNSPECIFIED', 'UNSPECIFIED', ('UNSPECIFIED'), ('UNSPECIFIED'), ('UNSPECIFIED') ) ;
#48 = EDGE_LOOP ( 'NONE', ( #103 ) ) ;
#49 = LOCAL_TIME ( 14, 57, 15.00000000000000000, #93 ) ;
#50 = CARTESIAN_POINT ( 'NONE',  ( 1.770181038793468674E-13, 2.999519565323702626E-32, 50.70000000000000284 ) ) ;
#51 = CYLINDRICAL_SURFACE ( 'NONE', #141, 3.999999999999998224 ) ;
#52 = EDGE_CURVE ( 'NONE', #194, #194, #89, .T. ) ;
#53 = PRODUCT ( '960185', '960185', '', ( #236 ) ) ;
#54 = PERSON_AND_ORGANIZATION ( #47, #125 ) ;
#55 = FACE_OUTER_BOUND ( 'NONE', #201, .T. ) ;
#56 = FACE_OUTER_BOUND ( 'NONE', #140, .T. ) ;
#57 = DIRECTION ( 'NONE',  ( 0.0000000000000000000, -1.000000000000000000, 0.0000000000000000000 ) ) ;
#58 = DIRECTION ( 'NONE',  ( 0.0000000000000000000, 1.000000000000000000, 0.0000000000000000000 ) ) ;
#59 = ADVANCED_FACE ( 'NONE', ( #212 ), #124, .F. ) ;
#60 = CARTESIAN_POINT ( 'NONE',  ( 3.533379114909250198E-13, -1.239342560737121245E-14, 101.1999999999999886 ) ) ;
#61 = LOCAL_TIME ( 14, 57, 15.00000000000000000, #24 ) ;
#62 = VERTEX_POINT ( 'NONE', #27 ) ;
#63 = CC_DESIGN_PERSON_AND_ORGANIZATION_ASSIGNMENT ( #76, #94, ( #116 ) ) ;
#64 = DIRECTION ( 'NONE',  ( -4.275831445896958607E-31, -1.000000000000000000, -1.224646799147353207E-16 ) ) ;
#65 = DIRECTION ( 'NONE',  ( -3.491481338843133355E-15, 1.224646799147353207E-16, -1.000000000000000000 ) ) ;
#66 = CC_DESIGN_APPROVAL ( #104, ( #72 ) ) ;
#67 = AXIS2_PLACEMENT_3D ( 'NONE', #12, #127, #165 ) ;
#68 = CYLINDRICAL_SURFACE ( 'NONE', #14, 3.900000000000008793 ) ;
#69 = ORIENTED_EDGE ( 'NONE', *, *, #118, .F. ) ;
#70 = FACE_OUTER_BOUND ( 'NONE', #216, .T. ) ;
#71 = DIRECTION ( 'NONE',  ( -3.491481338843133355E-15, 4.327174794786742882E-16, -1.000000000000000000 ) ) ;
#72 = PRODUCT_DEFINITION_FORMATION_WITH_SPECIFIED_SOURCE ( 'ANY', '', #53, .NOT_KNOWN. ) ;
#73 = FACE_OUTER_BOUND ( 'NONE', #240, .T. ) ;
#74 = FACE_OUTER_BOUND ( 'NONE', #122, .T. ) ;
#75 = FACE_BOUND ( 'NONE', #219, .T. ) ;
#76 = PERSON_AND_ORGANIZATION ( #47, #125 ) ;
#77 = DATE_AND_TIME ( #111, #178 ) ;
#78 = DESIGN_CONTEXT ( 'detailed design', #220, 'design' ) ;
#79 = PERSON_AND_ORGANIZATION ( #47, #125 ) ;
#80 = ADVANCED_FACE ( 'NONE', ( #100, #73 ), #68, .T. ) ;
#81 = APPROVAL_PERSON_ORGANIZATION ( #190, #104, #126 ) ;
#82 = AXIS2_PLACEMENT_3D ( 'NONE', #137, #175, #214 ) ;
#83 = MANIFOLD_SOLID_BREP ( 'Corps-Déplacer/Copier1[1]', #85 ) ;
#84 = ADVANCED_FACE ( 'NONE', ( #70 ), #242, .F. ) ;
#85 = CLOSED_SHELL ( 'NONE', ( #196, #123, #84, #146, #223, #59 ) ) ;
#86 = DIRECTION ( 'NONE',  ( 1.510825004591028030E-30, 1.000000000000000000, 4.327174794786742882E-16 ) ) ;
#87 = EDGE_LOOP ( 'NONE', ( #162 ) ) ;
#88 = ORIENTED_EDGE ( 'NONE', *, *, #36, .T. ) ;
#89 = CIRCLE ( 'NONE', #92, 3.900000000000018119 ) ;
#90 =( NAMED_UNIT ( * ) PLANE_ANGLE_UNIT ( ) SI_UNIT ( $, .RADIAN. ) );
#91 = CARTESIAN_POINT ( 'NONE',  ( 0.0000000000000000000, 0.0000000000000000000, 0.0000000000000000000 ) ) ;
#92 = AXIS2_PLACEMENT_3D ( 'NONE', #210, #229, #58 ) ;
#93 = COORDINATED_UNIVERSAL_TIME_OFFSET ( 1, 0, .AHEAD. ) ;
#94 = PERSON_AND_ORGANIZATION_ROLE ( 'classification_officer' ) ;
#95 = PERSON_AND_ORGANIZATION ( #47, #125 ) ;
#96 = AXIS2_PLACEMENT_3D ( 'NONE', #107, #139, #215 ) ;
#97 = EDGE_CURVE ( 'NONE', #134, #134, #225, .T. ) ;
#98 = VERTEX_POINT ( 'NONE', #156 ) ;
#99 = ORIENTED_EDGE ( 'NONE', *, *, #36, .F. ) ;
#100 = FACE_OUTER_BOUND ( 'NONE', #30, .T. ) ;
#101 = ORIENTED_EDGE ( 'NONE', *, *, #52, .T. ) ;
#102 = PRODUCT_RELATED_PRODUCT_CATEGORY ( 'detail', '', ( #53 ) ) ;
#103 = ORIENTED_EDGE ( 'NONE', *, *, #183, .F. ) ;
#104 = APPROVAL ( #188, 'UNSPECIFIED' ) ;
#105 = CARTESIAN_POINT ( 'NONE',  ( 1.770181038793468674E-13, 2.999519565323702626E-32, 50.70000000000000284 ) ) ;
#106 = AXIS2_PLACEMENT_3D ( 'NONE', #115, #5, #57 ) ;
#107 = CARTESIAN_POINT ( 'NONE',  ( 0.0000000000000000000, 0.0000000000000000000, 0.0000000000000000000 ) ) ;
#108 = DATE_AND_TIME ( #167, #61 ) ;
#109 = CARTESIAN_POINT ( 'NONE',  ( 2.057735597542506994E-13, -2.534210757807880023E-14, 58.93588989435402681 ) ) ;
#110 = DATE_AND_TIME ( #40, #39 ) ;
#111 = CALENDAR_DATE ( 2021, 13, 10 ) ;
#112 = CIRCLE ( 'NONE', #193, 3.900000000000008793 ) ;
#113 = VERTEX_POINT ( 'NONE', #43 ) ;
#114 = VERTEX_POINT ( 'NONE', #189 ) ;
#115 = CARTESIAN_POINT ( 'NONE',  ( 1.770181038793468674E-13, -2.193877620956878673E-14, 50.70000000000000284 ) ) ;
#116 = SECURITY_CLASSIFICATION ( '', '', #227 ) ;
#117 = AXIS2_PLACEMENT_3D ( 'NONE', #50, #181, #16 ) ;
#118 = EDGE_CURVE ( 'NONE', #98, #98, #147, .T. ) ;
#119 = ORIENTED_EDGE ( 'NONE', *, *, #52, .F. ) ;
#120 = CARTESIAN_POINT ( 'NONE',  ( 4.956101595255832245E-15, -1.738366431278193086E-16, 1.419483913638211137 ) ) ;
#121 = ORIENTED_EDGE ( 'NONE', *, *, #97, .F. ) ;
#122 = EDGE_LOOP ( 'NONE', ( #119 ) ) ;
#123 = ADVANCED_FACE ( 'NONE', ( #1, #75 ), #18, .T. ) ;
#124 = PLANE ( 'NONE',  #117 ) ;
#125 = ORGANIZATION ( 'UNSPECIFIED', 'UNSPECIFIED', '' ) ;
#126 = APPROVAL_ROLE ( '' ) ;
#127 = DIRECTION ( 'NONE',  ( -3.491481338843133355E-15, 1.224646799147353207E-16, -1.000000000000000000 ) ) ;
#128 = DIRECTION ( 'NONE',  ( -3.491481338843133355E-15, 1.224646799147353207E-16, -1.000000000000000000 ) ) ;
#129 = APPROVAL_ROLE ( '' ) ;
#130 = DATE_TIME_ROLE ( 'creation_date' ) ;
#131 = DIRECTION ( 'NONE',  ( -3.491481338843133355E-15, 1.224646799147353207E-16, -1.000000000000000000 ) ) ;
#132 = AXIS2_PLACEMENT_3D ( 'NONE', #160, #203, #218 ) ;
#133 = PERSON_AND_ORGANIZATION_ROLE ( 'creator' ) ;
#134 = VERTEX_POINT ( 'NONE', #154 ) ;
#135 = FACE_OUTER_BOUND ( 'NONE', #87, .T. ) ;
#136 = DIRECTION ( 'NONE',  ( 0.0000000000000000000, 1.000000000000000000, 0.0000000000000000000 ) ) ;
#137 = CARTESIAN_POINT ( 'NONE',  ( 5.083181123339289718E-15, -1.782939929516086737E-16, 1.455880937064824687 ) ) ;
#138 = ORIENTED_EDGE ( 'NONE', *, *, #148, .T. ) ;
#139 = DIRECTION ( 'NONE',  ( 0.0000000000000000000, 0.0000000000000000000, 1.000000000000000000 ) ) ;
#140 = EDGE_LOOP ( 'NONE', ( #13 ) ) ;
#141 = AXIS2_PLACEMENT_3D ( 'NONE', #37, #65, #17 ) ;
#142 = ORIENTED_EDGE ( 'NONE', *, *, #118, .T. ) ;
#143 = DIRECTION ( 'NONE',  ( -3.950625526948167328E-31, -1.000000000000000000, -1.112002228190258486E-16 ) ) ;
#144 = ADVANCED_BREP_SHAPE_REPRESENTATION ( '960185', ( #83, #3, #96 ), #206 ) ;
#145 = FACE_OUTER_BOUND ( 'NONE', #204, .T. ) ;
#146 = ADVANCED_FACE ( 'NONE', ( #231, #55 ), #25, .T. ) ;
#147 = CIRCLE ( 'NONE', #67, 3.200000000000002842 ) ;
#148 = EDGE_CURVE ( 'NONE', #176, #176, #9, .T. ) ;
#149 = DIRECTION ( 'NONE',  ( 3.491481338843133355E-15, -4.327174794786742882E-16, 1.000000000000000000 ) ) ;
#150 = COORDINATED_UNIVERSAL_TIME_OFFSET ( 1, 0, .AHEAD. ) ;
#151 = CC_DESIGN_APPROVAL ( #177, ( #116 ) ) ;
#152 = CIRCLE ( 'NONE', #46, 3.999999999999998224 ) ;
#153 = APPLICATION_CONTEXT ( 'configuration controlled 3d designs of mechanical parts and assemblies' ) ;
#154 = CARTESIAN_POINT ( 'NONE',  ( 4.956101595255830668E-15, -3.900000000000008793, 1.419483913638210693 ) ) ;
#155 = CC_DESIGN_SECURITY_CLASSIFICATION ( #116, ( #72 ) ) ;
#156 = CARTESIAN_POINT ( 'NONE',  ( 3.561310965619995770E-13, 3.199999999999989964, 102.0000000000000000 ) ) ;
#157 = EDGE_LOOP ( 'NONE', ( #45 ) ) ;
#158 = CC_DESIGN_PERSON_AND_ORGANIZATION_ASSIGNMENT ( #21, #6, ( #72 ) ) ;
#159 = CARTESIAN_POINT ( 'NONE',  ( 3.561310965619995770E-13, -1.249139735130300089E-14, 102.0000000000000000 ) ) ;
#160 = CARTESIAN_POINT ( 'NONE',  ( 3.561310965619995770E-13, 2.399615652258955477E-32, 102.0000000000000000 ) ) ;
#161 = APPROVAL_PERSON_ORGANIZATION ( #187, #166, #129 ) ;
#162 = ORIENTED_EDGE ( 'NONE', *, *, #97, .T. ) ;
#163 =( NAMED_UNIT ( * ) SI_UNIT ( $, .STERADIAN. ) SOLID_ANGLE_UNIT ( ) );
#164 = AXIS2_PLACEMENT_3D ( 'NONE', #105, #237, #64 ) ;
#165 = DIRECTION ( 'NONE',  ( 0.0000000000000000000, 1.000000000000000000, 0.0000000000000000000 ) ) ;
#166 = APPROVAL ( #185, 'UNSPECIFIED' ) ;
#167 = CALENDAR_DATE ( 2021, 13, 10 ) ;
#168 = UNCERTAINTY_MEASURE_WITH_UNIT (LENGTH_MEASURE( 1.000000000000000082E-05 ), #32, 'distance_accuracy_value', 'NONE');
#169 = PERSON_AND_ORGANIZATION_ROLE ( 'creator' ) ;
#170 = CARTESIAN_POINT ( 'NONE',  ( 2.042516583223233202E-13, 3.899999999999992806, 58.50000000000000000 ) ) ;
#171 = DATE_AND_TIME ( #230, #199 ) ;
#172 = CC_DESIGN_APPROVAL ( #166, ( #34 ) ) ;
#173 = AXIS2_PLACEMENT_3D ( 'NONE', #120, #202, #143 ) ;
#174 = CARTESIAN_POINT ( 'NONE',  ( 0.0000000000000000000, 0.0000000000000000000, 0.0000000000000000000 ) ) ;
#175 = DIRECTION ( 'NONE',  ( 3.491481338843133355E-15, -1.224646799147353207E-16, 1.000000000000000000 ) ) ;
#176 = VERTEX_POINT ( 'NONE', #234 ) ;
#177 = APPROVAL ( #2, 'UNSPECIFIED' ) ;
#178 = LOCAL_TIME ( 14, 57, 15.00000000000000000, #150 ) ;
#179 = DIRECTION ( 'NONE',  ( -3.491481338843133355E-15, 1.224646799147353207E-16, -1.000000000000000000 ) ) ;
#180 = CLOSED_SHELL ( 'NONE', ( #15, #80, #233 ) ) ;
#181 = DIRECTION ( 'NONE',  ( 3.491481338843133355E-15, -1.224646799147353207E-16, 1.000000000000000000 ) ) ;
#182 = TOROIDAL_SURFACE ( 'NONE', #243, 4.900000000000018119, 0.9999999999999995559 ) ;
#183 = EDGE_CURVE ( 'NONE', #62, #62, #152, .T. ) ;
#184 = DATE_TIME_ROLE ( 'classification_date' ) ;
#185 = APPROVAL_STATUS ( 'not_yet_approved' ) ;
#186 = COORDINATED_UNIVERSAL_TIME_OFFSET ( 1, 0, .AHEAD. ) ;
#187 = PERSON_AND_ORGANIZATION ( #47, #125 ) ;
#188 = APPROVAL_STATUS ( 'not_yet_approved' ) ;
#189 = CARTESIAN_POINT ( 'NONE',  ( 1.770181038793468674E-13, -3.900000000000030997, 50.70000000000000284 ) ) ;
#190 = PERSON_AND_ORGANIZATION ( #47, #125 ) ;
#191 = CC_DESIGN_DATE_AND_TIME_ASSIGNMENT ( #110, #130, ( #34 ) ) ;
#192 = DATE_AND_TIME ( #41, #49 ) ;
#193 = AXIS2_PLACEMENT_3D ( 'NONE', #197, #131, #28 ) ;
#194 = VERTEX_POINT ( 'NONE', #170 ) ;
#195 = PERSON_AND_ORGANIZATION ( #47, #125 ) ;
#196 = ADVANCED_FACE ( 'NONE', ( #56, #22 ), #51, .T. ) ;
#197 = CARTESIAN_POINT ( 'NONE',  ( 1.770181038793468674E-13, -2.193877620956878673E-14, 50.70000000000000284 ) ) ;
#198 = EDGE_LOOP ( 'NONE', ( #101 ) ) ;
#199 = LOCAL_TIME ( 14, 57, 15.00000000000000000, #211 ) ;
#200 = CARTESIAN_POINT ( 'NONE',  ( 2.042516583223233202E-13, -2.515349040166370287E-14, 58.50000000000000000 ) ) ;
#201 = EDGE_LOOP ( 'NONE', ( #99 ) ) ;
#202 = DIRECTION ( 'NONE',  ( -3.491481338843133355E-15, 1.224646799147353207E-16, -1.000000000000000000 ) ) ;
#203 = DIRECTION ( 'NONE',  ( -3.491481338843133355E-15, 1.224646799147353207E-16, -1.000000000000000000 ) ) ;
#204 = EDGE_LOOP ( 'NONE', ( #239 ) ) ;
#205 = DIRECTION ( 'NONE',  ( 1.510825004591028030E-30, 1.000000000000000000, 4.327174794786743375E-16 ) ) ;
#206 =( GEOMETRIC_REPRESENTATION_CONTEXT ( 3 ) GLOBAL_UNCERTAINTY_ASSIGNED_CONTEXT ( ( #168 ) ) GLOBAL_UNIT_ASSIGNED_CONTEXT ( ( #32, #90, #163 ) ) REPRESENTATION_CONTEXT ( 'NONE', 'WORKASPACE' ) );
#207 = DIRECTION ( 'NONE',  ( 0.0000000000000000000, 1.000000000000000000, 0.0000000000000000000 ) ) ;
#208 = APPROVAL_DATE_TIME ( #77, #177 ) ;
#209 = APPROVAL_PERSON_ORGANIZATION ( #79, #177, #23 ) ;
#210 = CARTESIAN_POINT ( 'NONE',  ( 2.042516583223233202E-13, -2.531397254950244744E-14, 58.50000000000000000 ) ) ;
#211 = COORDINATED_UNIVERSAL_TIME_OFFSET ( 1, 0, .AHEAD. ) ;
#212 = FACE_OUTER_BOUND ( 'NONE', #31, .T. ) ;
#213 = CC_DESIGN_PERSON_AND_ORGANIZATION_ASSIGNMENT ( #195, #26, ( #53 ) ) ;
#214 = DIRECTION ( 'NONE',  ( -3.851859888774481340E-31, -1.000000000000000000, -1.084202172485507146E-16 ) ) ;
#215 = DIRECTION ( 'NONE',  ( 1.000000000000000000, 0.0000000000000000000, 0.0000000000000000000 ) ) ;
#216 = EDGE_LOOP ( 'NONE', ( #69 ) ) ;
#217 = AXIS2_PLACEMENT_3D ( 'NONE', #174, #42, #232 ) ;
#218 = DIRECTION ( 'NONE',  ( 4.275831445896958607E-31, 1.000000000000000000, 1.224646799147353207E-16 ) ) ;
#219 = EDGE_LOOP ( 'NONE', ( #142 ) ) ;
#220 = APPLICATION_CONTEXT ( 'configuration controlled 3d designs of mechanical parts and assemblies' ) ;
#221 = APPLICATION_PROTOCOL_DEFINITION ( 'international standard', 'config_control_design', 1994, #153 ) ;
#222 = ORIENTED_EDGE ( 'NONE', *, *, #20, .T. ) ;
#223 = ADVANCED_FACE ( 'NONE', ( #74, #19 ), #182, .F. ) ;
#224 = APPROVAL_DATE_TIME ( #171, #166 ) ;
#225 = CIRCLE ( 'NONE', #173, 3.900000000000008793 ) ;
#226 = DIRECTION ( 'NONE',  ( 0.0000000000000000000, 1.000000000000000000, 0.0000000000000000000 ) ) ;
#227 = SECURITY_CLASSIFICATION_LEVEL ( 'unclassified' ) ;
#228 = AXIS2_PLACEMENT_3D ( 'NONE', #60, #128, #207 ) ;
#229 = DIRECTION ( 'NONE',  ( -3.491481338843133355E-15, 4.327174794786742882E-16, -1.000000000000000000 ) ) ;
#230 = CALENDAR_DATE ( 2021, 13, 10 ) ;
#231 = FACE_OUTER_BOUND ( 'NONE', #198, .T. ) ;
#232 = DIRECTION ( 'NONE',  ( 1.510825004591028030E-30, 1.000000000000000000, 4.327174794786742882E-16 ) ) ;
#233 = ADVANCED_FACE ( 'NONE', ( #145 ), #33, .T. ) ;
#234 = CARTESIAN_POINT ( 'NONE',  ( 3.533379114909250198E-13, 3.999999999999989786, 101.1999999999999886 ) ) ;
#235 = APPLICATION_PROTOCOL_DEFINITION ( 'international standard', 'config_control_design', 1994, #220 ) ;
#236 = MECHANICAL_CONTEXT ( 'NONE', #153, 'mechanical' ) ;
#237 = DIRECTION ( 'NONE',  ( 3.491481338843133355E-15, -1.224646799147353207E-16, 1.000000000000000000 ) ) ;
#238 = CC_DESIGN_PERSON_AND_ORGANIZATION_ASSIGNMENT ( #95, #133, ( #72 ) ) ;
#239 = ORIENTED_EDGE ( 'NONE', *, *, #20, .F. ) ;
#240 = EDGE_LOOP ( 'NONE', ( #121 ) ) ;
#241 = CC_DESIGN_PERSON_AND_ORGANIZATION_ASSIGNMENT ( #54, #169, ( #34 ) ) ;
#242 = PLANE ( 'NONE',  #132 ) ;
#243 = AXIS2_PLACEMENT_3D ( 'NONE', #200, #71, #205 ) ;
ENDSEC;
END-ISO-10303-21;
