ISO-10303-21;
HEADER;
FILE_DESCRIPTION (( 'STEP AP203' ),
    '1' );
FILE_NAME ('960184.step',
    '2021-10-13T12:57:14',
    ( '' ),
    ( '' ),
    'SwSTEP 2.0',
    'SolidWorks 2019',
    '' );
FILE_SCHEMA (( 'CONFIG_CONTROL_DESIGN' ));
ENDSEC;

DATA;
#1 = VERTEX_POINT ( 'NONE', #17 ) ;
#2 = LOCAL_TIME ( 14, 57, 14.00000000000000000, #143 ) ;
#3 = COORDINATED_UNIVERSAL_TIME_OFFSET ( 1, 0, .AHEAD. ) ;
#4 = DATE_AND_TIME ( #186, #38 ) ;
#5 = SHAPE_DEFINITION_REPRESENTATION ( #217, #126 ) ;
#6 = AXIS2_PLACEMENT_3D ( 'NONE', #216, #96, #258 ) ;
#7 = DIRECTION ( 'NONE',  ( 3.491481338843133355E-15, -1.224646799147353207E-16, 1.000000000000000000 ) ) ;
#8 = AXIS2_PLACEMENT_3D ( 'NONE', #54, #56, #59 ) ;
#9 = CC_DESIGN_APPROVAL ( #62, ( #48 ) ) ;
#10 = CARTESIAN_POINT ( 'NONE',  ( 1.990177947501383613E-13, -2.466531255877153727E-14, 57.00096189432330362 ) ) ;
#11 = DIRECTION ( 'NONE',  ( 0.0000000000000000000, 1.000000000000000000, 0.0000000000000000000 ) ) ;
#12 = FACE_OUTER_BOUND ( 'NONE', #26, .T. ) ;
#13 = ORIENTED_EDGE ( 'NONE', *, *, #173, .T. ) ;
#14 = CIRCLE ( 'NONE', #166, 3.750000000000008438 ) ;
#15 = APPROVAL ( #201, 'UNSPECIFIED' ) ;
#16 = DIRECTION ( 'NONE',  ( 0.0000000000000000000, -1.000000000000000000, 0.0000000000000000000 ) ) ;
#17 = CARTESIAN_POINT ( 'NONE',  ( 4.765482303130606199E-15, -3.750000000000008438, 1.364888378498279486 ) ) ;
#18 = ORIENTED_EDGE ( 'NONE', *, *, #158, .T. ) ;
#19 = VERTEX_POINT ( 'NONE', #40 ) ;
#20 = EDGE_LOOP ( 'NONE', ( #65 ) ) ;
#21 = CARTESIAN_POINT ( 'NONE',  ( 0.0000000000000000000, 0.0000000000000000000, 0.0000000000000000000 ) ) ;
#22 = VERTEX_POINT ( 'NONE', #177 ) ;
#23 = ADVANCED_FACE ( 'NONE', ( #73 ), #198, .F. ) ;
#24 = PERSON_AND_ORGANIZATION_ROLE ( 'creator' ) ;
#25 = CALENDAR_DATE ( 2021, 13, 10 ) ;
#26 = EDGE_LOOP ( 'NONE', ( #98 ) ) ;
#27 = AXIS2_PLACEMENT_3D ( 'NONE', #93, #32, #256 ) ;
#28 = DIRECTION ( 'NONE',  ( 0.0000000000000000000, 1.000000000000000000, 0.0000000000000000000 ) ) ;
#29 = DIRECTION ( 'NONE',  ( 0.0000000000000000000, -1.000000000000000000, 0.0000000000000000000 ) ) ;
#30 = CC_DESIGN_SECURITY_CLASSIFICATION ( #48, ( #72 ) ) ;
#31 = AXIS2_PLACEMENT_3D ( 'NONE', #134, #213, #191 ) ;
#32 = DIRECTION ( 'NONE',  ( -3.491481338843133355E-15, 4.327174794786742882E-16, -1.000000000000000000 ) ) ;
#33 = FACE_OUTER_BOUND ( 'NONE', #39, .T. ) ;
#34 = EDGE_CURVE ( 'NONE', #179, #179, #141, .T. ) ;
#35 = EDGE_LOOP ( 'NONE', ( #154 ) ) ;
#36 = DIRECTION ( 'NONE',  ( -3.491481338843133355E-15, 4.327174794786742882E-16, -1.000000000000000000 ) ) ;
#37 = APPROVAL_PERSON_ORGANIZATION ( #125, #15, #181 ) ;
#38 = LOCAL_TIME ( 14, 57, 14.00000000000000000, #69 ) ;
#39 = EDGE_LOOP ( 'NONE', ( #13 ) ) ;
#40 = CARTESIAN_POINT ( 'NONE',  ( 1.703842893355448825E-13, -3.750000000000029754, 48.79999999999999716 ) ) ;
#41 = EDGE_LOOP ( 'NONE', ( #236 ) ) ;
#42 = CYLINDRICAL_SURFACE ( 'NONE', #118, 3.750000000000008438 ) ;
#43 = DATE_AND_TIME ( #224, #2 ) ;
#44 = CARTESIAN_POINT ( 'NONE',  ( 3.561310965619995770E-13, 2.399615652258955477E-32, 102.0000000000000000 ) ) ;
#45 = VERTEX_POINT ( 'NONE', #87 ) ;
#46 = EDGE_LOOP ( 'NONE', ( #18 ) ) ;
#47 = PERSON_AND_ORGANIZATION ( #211, #194 ) ;
#48 = SECURITY_CLASSIFICATION ( '', '', #128 ) ;
#49 = PERSON_AND_ORGANIZATION_ROLE ( 'creator' ) ;
#50 = UNCERTAINTY_MEASURE_WITH_UNIT (LENGTH_MEASURE( 1.000000000000000082E-05 ), #263, 'distance_accuracy_value', 'NONE');
#51 = APPROVAL_DATE_TIME ( #185, #15 ) ;
#52 = CARTESIAN_POINT ( 'NONE',  ( 4.765482303130607776E-15, -1.671506183921339420E-16, 1.364888378498279931 ) ) ;
#53 = ORIENTED_EDGE ( 'NONE', *, *, #139, .T. ) ;
#54 = CARTESIAN_POINT ( 'NONE',  ( 1.703842893355448825E-13, 2.999519565323702626E-32, 48.79999999999999716 ) ) ;
#55 = AXIS2_PLACEMENT_3D ( 'NONE', #142, #81, #136 ) ;
#56 = DIRECTION ( 'NONE',  ( 3.491481338843133355E-15, -1.224646799147353207E-16, 1.000000000000000000 ) ) ;
#57 = ADVANCED_FACE ( 'NONE', ( #210, #249 ), #260, .T. ) ;
#58 = DIRECTION ( 'NONE',  ( -3.491481338843133355E-15, 1.224646799147353207E-16, -1.000000000000000000 ) ) ;
#59 = DIRECTION ( 'NONE',  ( -4.275831445896958607E-31, -1.000000000000000000, -1.224646799147353207E-16 ) ) ;
#60 = AXIS2_PLACEMENT_3D ( 'NONE', #79, #36, #140 ) ;
#61 = APPROVAL_ROLE ( '' ) ;
#62 = APPROVAL ( #168, 'UNSPECIFIED' ) ;
#63 = DATE_TIME_ROLE ( 'creation_date' ) ;
#64 = ADVANCED_FACE ( 'NONE', ( #117, #190 ), #239, .F. ) ;
#65 = ORIENTED_EDGE ( 'NONE', *, *, #158, .F. ) ;
#66 = CC_DESIGN_PERSON_AND_ORGANIZATION_ASSIGNMENT ( #167, #49, ( #72 ) ) ;
#67 = CARTESIAN_POINT ( 'NONE',  ( 1.965703993768684142E-13, 3.749999999999992450, 56.29999999999999716 ) ) ;
#68 = ORIENTED_EDGE ( 'NONE', *, *, #220, .T. ) ;
#69 = COORDINATED_UNIVERSAL_TIME_OFFSET ( 1, 0, .AHEAD. ) ;
#70 = DIRECTION ( 'NONE',  ( -3.491481338843133355E-15, 4.327174794786742882E-16, -1.000000000000000000 ) ) ;
#71 = AXIS2_PLACEMENT_3D ( 'NONE', #52, #99, #159 ) ;
#72 = PRODUCT_DEFINITION_FORMATION_WITH_SPECIFIED_SOURCE ( 'ANY', '', #95, .NOT_KNOWN. ) ;
#73 = FACE_OUTER_BOUND ( 'NONE', #244, .T. ) ;
#74 = ORIENTED_EDGE ( 'NONE', *, *, #220, .F. ) ;
#75 = FACE_OUTER_BOUND ( 'NONE', #35, .T. ) ;
#76 = ORIENTED_EDGE ( 'NONE', *, *, #34, .F. ) ;
#77 = CARTESIAN_POINT ( 'NONE',  ( 2.020415062864159414E-13, -2.504005688866165709E-14, 57.86698729810777309 ) ) ;
#78 = DIRECTION ( 'NONE',  ( 3.491481338843133355E-15, -4.327174794786742882E-16, 1.000000000000000000 ) ) ;
#79 = CARTESIAN_POINT ( 'NONE',  ( 0.0000000000000000000, 0.0000000000000000000, 0.0000000000000000000 ) ) ;
#80 = ORIENTED_EDGE ( 'NONE', *, *, #34, .T. ) ;
#81 = DIRECTION ( 'NONE',  ( -3.491481338843133355E-15, 1.224646799147353207E-16, -1.000000000000000000 ) ) ;
#82 = AXIS2_PLACEMENT_3D ( 'NONE', #235, #172, #110 ) ;
#83 = EDGE_LOOP ( 'NONE', ( #119 ) ) ;
#84 =( NAMED_UNIT ( * ) PLANE_ANGLE_UNIT ( ) SI_UNIT ( $, .RADIAN. ) );
#85 = APPROVAL_STATUS ( 'not_yet_approved' ) ;
#86 = APPROVAL_PERSON_ORGANIZATION ( #165, #149, #61 ) ;
#87 = CARTESIAN_POINT ( 'NONE',  ( 3.561310965619995770E-13, 3.199999999999989964, 102.0000000000000000 ) ) ;
#88 = ADVANCED_FACE ( 'NONE', ( #219, #157 ), #257, .T. ) ;
#89 = DATE_TIME_ROLE ( 'classification_date' ) ;
#90 = AXIS2_PLACEMENT_3D ( 'NONE', #170, #115, #253 ) ;
#91 = PRODUCT_RELATED_PRODUCT_CATEGORY ( 'detail', '', ( #95 ) ) ;
#92 = CARTESIAN_POINT ( 'NONE',  ( 1.703842893355448825E-13, 2.999519565323702626E-32, 48.79999999999999716 ) ) ;
#93 = CARTESIAN_POINT ( 'NONE',  ( 1.983161400462899493E-13, -2.457835283438869768E-14, 56.79999999999999716 ) ) ;
#94 = DIRECTION ( 'NONE',  ( 3.491481338843133355E-15, -4.327174794786742882E-16, 1.000000000000000000 ) ) ;
#95 = PRODUCT ( '960184', '960184', '', ( #243 ) ) ;
#96 = DIRECTION ( 'NONE',  ( -3.491481338843133355E-15, 1.224646799147353207E-16, -1.000000000000000000 ) ) ;
#97 = AXIS2_PLACEMENT_3D ( 'NONE', #232, #195, #11 ) ;
#98 = ORIENTED_EDGE ( 'NONE', *, *, #173, .F. ) ;
#99 = DIRECTION ( 'NONE',  ( -3.491481338843133355E-15, 1.224646799147353207E-16, -1.000000000000000000 ) ) ;
#100 = CC_DESIGN_PERSON_AND_ORGANIZATION_ASSIGNMENT ( #205, #183, ( #72 ) ) ;
#101 = CONICAL_SURFACE ( 'NONE', #199, 4.500000000000022204, 0.5235987755983019243 ) ;
#102 = DIRECTION ( 'NONE',  ( 1.000000000000000000, 0.0000000000000000000, 0.0000000000000000000 ) ) ;
#103 = VERTEX_POINT ( 'NONE', #120 ) ;
#104 = DATE_AND_TIME ( #178, #151 ) ;
#105 =( GEOMETRIC_REPRESENTATION_CONTEXT ( 3 ) GLOBAL_UNCERTAINTY_ASSIGNED_CONTEXT ( ( #50 ) ) GLOBAL_UNIT_ASSIGNED_CONTEXT ( ( #263, #84, #241 ) ) REPRESENTATION_CONTEXT ( 'NONE', 'WORKASPACE' ) );
#106 = DESIGN_CONTEXT ( 'detailed design', #184, 'design' ) ;
#107 = COORDINATED_UNIVERSAL_TIME_OFFSET ( 1, 0, .AHEAD. ) ;
#108 = AXIS2_PLACEMENT_3D ( 'NONE', #44, #124, #164 ) ;
#109 = CC_DESIGN_PERSON_AND_ORGANIZATION_ASSIGNMENT ( #204, #24, ( #114 ) ) ;
#110 = DIRECTION ( 'NONE',  ( 0.0000000000000000000, 1.000000000000000000, 0.0000000000000000000 ) ) ;
#111 = AXIS2_PLACEMENT_3D ( 'NONE', #112, #156, #174 ) ;
#112 = CARTESIAN_POINT ( 'NONE',  ( 1.965703993768684142E-13, -2.428612866367529932E-14, 56.29999999999999716 ) ) ;
#113 = DIRECTION ( 'NONE',  ( -4.275831445896958607E-31, -1.000000000000000000, -1.224646799147353207E-16 ) ) ;
#114 = PRODUCT_DEFINITION ( 'UNKNOWN', '', #72, #106 ) ;
#115 = DIRECTION ( 'NONE',  ( -3.491481338843133355E-15, 1.224646799147353207E-16, -1.000000000000000000 ) ) ;
#116 = CLOSED_SHELL ( 'NONE', ( #57, #133, #23, #254, #153, #64, #188 ) ) ;
#117 = FACE_OUTER_BOUND ( 'NONE', #163, .T. ) ;
#118 = AXIS2_PLACEMENT_3D ( 'NONE', #21, #221, #122 ) ;
#119 = ORIENTED_EDGE ( 'NONE', *, *, #203, .T. ) ;
#120 = CARTESIAN_POINT ( 'NONE',  ( 3.533379114909250198E-13, 3.999999999999989786, 101.1999999999999886 ) ) ;
#121 = EDGE_LOOP ( 'NONE', ( #68 ) ) ;
#122 = DIRECTION ( 'NONE',  ( 1.510825004591027855E-30, 1.000000000000000000, 4.327174794786743375E-16 ) ) ;
#123 = APPROVAL_DATE_TIME ( #43, #149 ) ;
#124 = DIRECTION ( 'NONE',  ( -3.491481338843133355E-15, 1.224646799147353207E-16, -1.000000000000000000 ) ) ;
#125 = PERSON_AND_ORGANIZATION ( #211, #194 ) ;
#126 = ADVANCED_BREP_SHAPE_REPRESENTATION ( '960184', ( #130, #212, #182 ), #105 ) ;
#127 = EDGE_LOOP ( 'NONE', ( #259 ) ) ;
#128 = SECURITY_CLASSIFICATION_LEVEL ( 'unclassified' ) ;
#129 = CC_DESIGN_PERSON_AND_ORGANIZATION_ASSIGNMENT ( #225, #245, ( #48 ) ) ;
#130 = MANIFOLD_SOLID_BREP ( 'Corps-Déplacer/Copier1[1]', #116 ) ;
#131 = DATE_AND_TIME ( #25, #145 ) ;
#132 = AXIS2_PLACEMENT_3D ( 'NONE', #10, #94, #29 ) ;
#133 = ADVANCED_FACE ( 'NONE', ( #75, #152 ), #262, .T. ) ;
#134 = CARTESIAN_POINT ( 'NONE',  ( 5.083181123339289718E-15, -1.782939929516086737E-16, 1.455880937064824687 ) ) ;
#135 = EDGE_CURVE ( 'NONE', #22, #22, #169, .T. ) ;
#136 = DIRECTION ( 'NONE',  ( 0.0000000000000000000, -1.000000000000000000, 0.0000000000000000000 ) ) ;
#137 = FACE_OUTER_BOUND ( 'NONE', #20, .T. ) ;
#138 = EDGE_CURVE ( 'NONE', #196, #196, #251, .T. ) ;
#139 = EDGE_CURVE ( 'NONE', #103, #103, #208, .T. ) ;
#140 = DIRECTION ( 'NONE',  ( 1.510825004591027855E-30, 1.000000000000000000, 4.327174794786743375E-16 ) ) ;
#141 = CIRCLE ( 'NONE', #146, 3.750000000000016875 ) ;
#142 = CARTESIAN_POINT ( 'NONE',  ( 1.703842893355448825E-13, -2.111661299855930337E-14, 48.79999999999999716 ) ) ;
#143 = COORDINATED_UNIVERSAL_TIME_OFFSET ( 1, 0, .AHEAD. ) ;
#144 = CARTESIAN_POINT ( 'NONE',  ( 0.0000000000000000000, 0.0000000000000000000, 0.0000000000000000000 ) ) ;
#145 = LOCAL_TIME ( 14, 57, 14.00000000000000000, #107 ) ;
#146 = AXIS2_PLACEMENT_3D ( 'NONE', #209, #70, #28 ) ;
#147 = PERSON_AND_ORGANIZATION ( #211, #194 ) ;
#148 = CARTESIAN_POINT ( 'NONE',  ( 1.703842893355448825E-13, -3.750000000000029754, 48.79999999999999716 ) ) ;
#149 = APPROVAL ( #85, 'UNSPECIFIED' ) ;
#150 = AXIS2_PLACEMENT_3D ( 'NONE', #92, #7, #113 ) ;
#151 = LOCAL_TIME ( 14, 57, 14.00000000000000000, #200 ) ;
#152 = FACE_BOUND ( 'NONE', #121, .T. ) ;
#153 = ADVANCED_FACE ( 'NONE', ( #234, #137 ), #101, .T. ) ;
#154 = ORIENTED_EDGE ( 'NONE', *, *, #139, .F. ) ;
#155 = FACE_OUTER_BOUND ( 'NONE', #83, .T. ) ;
#156 = DIRECTION ( 'NONE',  ( -3.491481338843133355E-15, 4.327174794786742882E-16, -1.000000000000000000 ) ) ;
#157 = FACE_OUTER_BOUND ( 'NONE', #41, .T. ) ;
#158 = EDGE_CURVE ( 'NONE', #197, #197, #242, .T. ) ;
#159 = DIRECTION ( 'NONE',  ( -4.108650548026093811E-31, -1.000000000000000000, -1.156482317317868767E-16 ) ) ;
#160 = CIRCLE ( 'NONE', #71, 3.750000000000008438 ) ;
#161 = DIRECTION ( 'NONE',  ( 0.0000000000000000000, 0.0000000000000000000, 1.000000000000000000 ) ) ;
#162 = PERSON_AND_ORGANIZATION_ROLE ( 'design_owner' ) ;
#163 = EDGE_LOOP ( 'NONE', ( #76 ) ) ;
#164 = DIRECTION ( 'NONE',  ( 4.275831445896958607E-31, 1.000000000000000000, 1.224646799147353207E-16 ) ) ;
#165 = PERSON_AND_ORGANIZATION ( #211, #194 ) ;
#166 = AXIS2_PLACEMENT_3D ( 'NONE', #215, #58, #218 ) ;
#167 = PERSON_AND_ORGANIZATION ( #211, #194 ) ;
#168 = APPROVAL_STATUS ( 'not_yet_approved' ) ;
#169 = CIRCLE ( 'NONE', #27, 3.883974596215579833 ) ;
#170 = CARTESIAN_POINT ( 'NONE',  ( 3.561310965619995770E-13, -1.249139735130300089E-14, 102.0000000000000000 ) ) ;
#171 = PLANE ( 'NONE',  #8 ) ;
#172 = DIRECTION ( 'NONE',  ( -3.491481338843133355E-15, 1.224646799147353207E-16, -1.000000000000000000 ) ) ;
#173 = EDGE_CURVE ( 'NONE', #19, #19, #14, .T. ) ;
#174 = DIRECTION ( 'NONE',  ( 1.510825004591027855E-30, 1.000000000000000000, 4.327174794786742389E-16 ) ) ;
#175 = ORIENTED_EDGE ( 'NONE', *, *, #135, .F. ) ;
#176 = EDGE_LOOP ( 'NONE', ( #252 ) ) ;
#177 = CARTESIAN_POINT ( 'NONE',  ( 1.983161400462899493E-13, 3.883974596215554964, 56.79999999999999716 ) ) ;
#178 = CALENDAR_DATE ( 2021, 13, 10 ) ;
#179 = VERTEX_POINT ( 'NONE', #67 ) ;
#180 = LOCAL_TIME ( 14, 57, 14.00000000000000000, #3 ) ;
#181 = APPROVAL_ROLE ( '' ) ;
#182 = AXIS2_PLACEMENT_3D ( 'NONE', #144, #161, #102 ) ;
#183 = PERSON_AND_ORGANIZATION_ROLE ( 'design_supplier' ) ;
#184 = APPLICATION_CONTEXT ( 'configuration controlled 3d designs of mechanical parts and assemblies' ) ;
#185 = DATE_AND_TIME ( #206, #180 ) ;
#186 = CALENDAR_DATE ( 2021, 13, 10 ) ;
#187 = EDGE_LOOP ( 'NONE', ( #80 ) ) ;
#188 = ADVANCED_FACE ( 'NONE', ( #33 ), #171, .F. ) ;
#189 = PLANE ( 'NONE',  #150 ) ;
#190 = FACE_OUTER_BOUND ( 'NONE', #176, .T. ) ;
#191 = DIRECTION ( 'NONE',  ( -3.851859888774481340E-31, -1.000000000000000000, -1.084202172485507146E-16 ) ) ;
#192 = FACE_OUTER_BOUND ( 'NONE', #187, .T. ) ;
#193 = APPLICATION_CONTEXT ( 'configuration controlled 3d designs of mechanical parts and assemblies' ) ;
#194 = ORGANIZATION ( 'UNSPECIFIED', 'UNSPECIFIED', '' ) ;
#195 = DIRECTION ( 'NONE',  ( -3.491481338843133355E-15, 1.224646799147353207E-16, -1.000000000000000000 ) ) ;
#196 = VERTEX_POINT ( 'NONE', #148 ) ;
#197 = VERTEX_POINT ( 'NONE', #240 ) ;
#198 = PLANE ( 'NONE',  #108 ) ;
#199 = AXIS2_PLACEMENT_3D ( 'NONE', #77, #78, #16 ) ;
#200 = COORDINATED_UNIVERSAL_TIME_OFFSET ( 1, 0, .AHEAD. ) ;
#201 = APPROVAL_STATUS ( 'not_yet_approved' ) ;
#202 = ADVANCED_FACE ( 'NONE', ( #237 ), #189, .T. ) ;
#203 = EDGE_CURVE ( 'NONE', #1, #1, #160, .T. ) ;
#204 = PERSON_AND_ORGANIZATION ( #211, #194 ) ;
#205 = PERSON_AND_ORGANIZATION ( #211, #194 ) ;
#206 = CALENDAR_DATE ( 2021, 13, 10 ) ;
#207 = APPROVAL_DATE_TIME ( #4, #62 ) ;
#208 = CIRCLE ( 'NONE', #97, 4.000000000000001776 ) ;
#209 = CARTESIAN_POINT ( 'NONE',  ( 1.965703993768684142E-13, -2.436199409464936211E-14, 56.29999999999999716 ) ) ;
#210 = FACE_OUTER_BOUND ( 'NONE', #46, .T. ) ;
#211 = PERSON ( 'UNSPECIFIED', 'UNSPECIFIED', 'UNSPECIFIED', ('UNSPECIFIED'), ('UNSPECIFIED'), ('UNSPECIFIED') ) ;
#212 = MANIFOLD_SOLID_BREP ( 'Corps-Déplacer/Copier1[2]', #247 ) ;
#213 = DIRECTION ( 'NONE',  ( 3.491481338843133355E-15, -1.224646799147353207E-16, 1.000000000000000000 ) ) ;
#214 = ORIENTED_EDGE ( 'NONE', *, *, #138, .F. ) ;
#215 = CARTESIAN_POINT ( 'NONE',  ( 1.703842893355448825E-13, -2.111661299855930337E-14, 48.79999999999999716 ) ) ;
#216 = CARTESIAN_POINT ( 'NONE',  ( 0.0000000000000000000, 0.0000000000000000000, 0.0000000000000000000 ) ) ;
#217 = PRODUCT_DEFINITION_SHAPE ( 'NONE', 'NONE',  #114 ) ;
#218 = DIRECTION ( 'NONE',  ( 0.0000000000000000000, -1.000000000000000000, 0.0000000000000000000 ) ) ;
#219 = FACE_OUTER_BOUND ( 'NONE', #127, .T. ) ;
#220 = EDGE_CURVE ( 'NONE', #45, #45, #227, .T. ) ;
#221 = DIRECTION ( 'NONE',  ( -3.491481338843133355E-15, 4.327174794786742882E-16, -1.000000000000000000 ) ) ;
#222 = APPLICATION_PROTOCOL_DEFINITION ( 'international standard', 'config_control_design', 1994, #184 ) ;
#223 = APPLICATION_PROTOCOL_DEFINITION ( 'international standard', 'config_control_design', 1994, #193 ) ;
#224 = CALENDAR_DATE ( 2021, 13, 10 ) ;
#225 = PERSON_AND_ORGANIZATION ( #211, #194 ) ;
#226 = APPROVAL_PERSON_ORGANIZATION ( #47, #62, #246 ) ;
#227 = CIRCLE ( 'NONE', #90, 3.200000000000002842 ) ;
#228 = CC_DESIGN_DATE_AND_TIME_ASSIGNMENT ( #104, #63, ( #114 ) ) ;
#229 = CC_DESIGN_DATE_AND_TIME_ASSIGNMENT ( #131, #89, ( #48 ) ) ;
#230 = CC_DESIGN_APPROVAL ( #149, ( #114 ) ) ;
#231 = EDGE_LOOP ( 'NONE', ( #175 ) ) ;
#232 = CARTESIAN_POINT ( 'NONE',  ( 3.533379114909250198E-13, -1.239342560737121245E-14, 101.1999999999999886 ) ) ;
#233 = CONICAL_SURFACE ( 'NONE', #31, 3.999999999999989786, 1.221730476396026610 ) ;
#234 = FACE_BOUND ( 'NONE', #231, .T. ) ;
#235 = CARTESIAN_POINT ( 'NONE',  ( 3.561310965619995770E-13, -1.249139735130300089E-14, 102.0000000000000000 ) ) ;
#236 = ORIENTED_EDGE ( 'NONE', *, *, #203, .F. ) ;
#237 = FACE_OUTER_BOUND ( 'NONE', #255, .T. ) ;
#238 = CC_DESIGN_PERSON_AND_ORGANIZATION_ASSIGNMENT ( #147, #162, ( #95 ) ) ;
#239 = TOROIDAL_SURFACE ( 'NONE', #111, 4.750000000000017764, 1.000000000000000444 ) ;
#240 = CARTESIAN_POINT ( 'NONE',  ( 1.990177947501383613E-13, -4.000000000000022204, 57.00096189432330362 ) ) ;
#241 =( NAMED_UNIT ( * ) SI_UNIT ( $, .STERADIAN. ) SOLID_ANGLE_UNIT ( ) );
#242 = CIRCLE ( 'NONE', #132, 3.999999999999998224 ) ;
#243 = MECHANICAL_CONTEXT ( 'NONE', #193, 'mechanical' ) ;
#244 = EDGE_LOOP ( 'NONE', ( #74 ) ) ;
#245 = PERSON_AND_ORGANIZATION_ROLE ( 'classification_officer' ) ;
#246 = APPROVAL_ROLE ( '' ) ;
#247 = CLOSED_SHELL ( 'NONE', ( #248, #88, #202 ) ) ;
#248 = ADVANCED_FACE ( 'NONE', ( #155 ), #233, .T. ) ;
#249 = FACE_OUTER_BOUND ( 'NONE', #261, .T. ) ;
#250 = CC_DESIGN_APPROVAL ( #15, ( #72 ) ) ;
#251 = CIRCLE ( 'NONE', #55, 3.750000000000008438 ) ;
#252 = ORIENTED_EDGE ( 'NONE', *, *, #135, .T. ) ;
#253 = DIRECTION ( 'NONE',  ( 0.0000000000000000000, 1.000000000000000000, 0.0000000000000000000 ) ) ;
#254 = ADVANCED_FACE ( 'NONE', ( #192, #12 ), #42, .T. ) ;
#255 = EDGE_LOOP ( 'NONE', ( #214 ) ) ;
#256 = DIRECTION ( 'NONE',  ( 0.0000000000000000000, 1.000000000000000000, 0.0000000000000000000 ) ) ;
#257 = CYLINDRICAL_SURFACE ( 'NONE', #60, 3.750000000000008438 ) ;
#258 = DIRECTION ( 'NONE',  ( 4.275831445896958607E-31, 1.000000000000000000, 1.224646799147353207E-16 ) ) ;
#259 = ORIENTED_EDGE ( 'NONE', *, *, #138, .T. ) ;
#260 = CYLINDRICAL_SURFACE ( 'NONE', #6, 3.999999999999998224 ) ;
#261 = EDGE_LOOP ( 'NONE', ( #53 ) ) ;
#262 = CONICAL_SURFACE ( 'NONE', #82, 3.200000000000002842, 0.7853981633974420618 ) ;
#263 =( LENGTH_UNIT ( ) NAMED_UNIT ( * ) SI_UNIT ( .MILLI., .METRE. ) );
ENDSEC;
END-ISO-10303-21;
