ISO-10303-21;
HEADER;
FILE_DESCRIPTION (( 'STEP AP203' ),
    '1' );
FILE_NAME ('960183.step',
    '2021-10-13T12:57:14',
    ( '' ),
    ( '' ),
    'SwSTEP 2.0',
    'SolidWorks 2019',
    '' );
FILE_SCHEMA (( 'CONFIG_CONTROL_DESIGN' ));
ENDSEC;

DATA;
#1 = AXIS2_PLACEMENT_3D ( 'NONE', #208, #150, #74 ) ;
#2 = VERTEX_POINT ( 'NONE', #93 ) ;
#3 = FACE_OUTER_BOUND ( 'NONE', #33, .T. ) ;
#4 = CC_DESIGN_PERSON_AND_ORGANIZATION_ASSIGNMENT ( #47, #19, ( #202 ) ) ;
#5 = ORIENTED_EDGE ( 'NONE', *, *, #263, .F. ) ;
#6 = DIRECTION ( 'NONE',  ( -3.491481338843133355E-15, 1.224646799147353207E-16, -1.000000000000000000 ) ) ;
#7 = ORIENTED_EDGE ( 'NONE', *, *, #152, .T. ) ;
#8 = DIRECTION ( 'NONE',  ( 1.510825004591027855E-30, 1.000000000000000000, 4.327174794786742882E-16 ) ) ;
#9 = DIRECTION ( 'NONE',  ( 3.491481338843133355E-15, -4.327174794786742882E-16, 1.000000000000000000 ) ) ;
#10 = CARTESIAN_POINT ( 'NONE',  ( 0.0000000000000000000, 0.0000000000000000000, 0.0000000000000000000 ) ) ;
#11 = ORIENTED_EDGE ( 'NONE', *, *, #258, .T. ) ;
#12 = ORIENTED_EDGE ( 'NONE', *, *, #152, .F. ) ;
#13 = ADVANCED_FACE ( 'NONE', ( #98 ), #173, .F. ) ;
#14 = APPROVAL_STATUS ( 'not_yet_approved' ) ;
#15 = PRODUCT_DEFINITION_SHAPE ( 'NONE', 'NONE',  #184 ) ;
#16 =( LENGTH_UNIT ( ) NAMED_UNIT ( * ) SI_UNIT ( .MILLI., .METRE. ) );
#17 = DIRECTION ( 'NONE',  ( 1.000000000000000000, 0.0000000000000000000, 0.0000000000000000000 ) ) ;
#18 = CALENDAR_DATE ( 2021, 13, 10 ) ;
#19 = PERSON_AND_ORGANIZATION_ROLE ( 'classification_officer' ) ;
#20 = PRODUCT_DEFINITION_FORMATION_WITH_SPECIFIED_SOURCE ( 'ANY', '', #146, .NOT_KNOWN. ) ;
#21 = APPROVAL_ROLE ( '' ) ;
#22 = DIRECTION ( 'NONE',  ( 3.491481338843133355E-15, -1.224646799147353207E-16, 1.000000000000000000 ) ) ;
#23 = ADVANCED_FACE ( 'NONE', ( #3 ), #215, .T. ) ;
#24 = FACE_OUTER_BOUND ( 'NONE', #41, .T. ) ;
#25 = AXIS2_PLACEMENT_3D ( 'NONE', #122, #43, #17 ) ;
#26 = LOCAL_TIME ( 14, 57, 14.00000000000000000, #65 ) ;
#27 = DIRECTION ( 'NONE',  ( -4.275831445896958607E-31, -1.000000000000000000, -1.224646799147353207E-16 ) ) ;
#28 = ADVANCED_FACE ( 'NONE', ( #156, #57 ), #224, .T. ) ;
#29 = AXIS2_PLACEMENT_3D ( 'NONE', #213, #251, #118 ) ;
#30 = APPLICATION_CONTEXT ( 'configuration controlled 3d designs of mechanical parts and assemblies' ) ;
#31 = EDGE_LOOP ( 'NONE', ( #129 ) ) ;
#32 = CIRCLE ( 'NONE', #220, 3.999999999999998224 ) ;
#33 = EDGE_LOOP ( 'NONE', ( #161 ) ) ;
#34 = VERTEX_POINT ( 'NONE', #119 ) ;
#35 = DATE_AND_TIME ( #217, #87 ) ;
#36 = ORIENTED_EDGE ( 'NONE', *, *, #68, .T. ) ;
#37 = DIRECTION ( 'NONE',  ( -3.491481338843133355E-15, 1.224646799147353207E-16, -1.000000000000000000 ) ) ;
#38 = FACE_OUTER_BOUND ( 'NONE', #31, .T. ) ;
#39 = CIRCLE ( 'NONE', #193, 3.600000000000008527 ) ;
#40 = CC_DESIGN_PERSON_AND_ORGANIZATION_ASSIGNMENT ( #45, #204, ( #20 ) ) ;
#41 = EDGE_LOOP ( 'NONE', ( #196 ) ) ;
#42 = AXIS2_PLACEMENT_3D ( 'NONE', #51, #110, #27 ) ;
#43 = DIRECTION ( 'NONE',  ( 0.0000000000000000000, 0.0000000000000000000, 1.000000000000000000 ) ) ;
#44 = ADVANCED_FACE ( 'NONE', ( #128, #155 ), #229, .T. ) ;
#45 = PERSON_AND_ORGANIZATION ( #75, #209 ) ;
#46 = CALENDAR_DATE ( 2021, 13, 10 ) ;
#47 = PERSON_AND_ORGANIZATION ( #75, #209 ) ;
#48 = PERSON_AND_ORGANIZATION ( #75, #209 ) ;
#49 = ADVANCED_FACE ( 'NONE', ( #214, #60 ), #131, .T. ) ;
#50 = DATE_TIME_ROLE ( 'creation_date' ) ;
#51 = CARTESIAN_POINT ( 'NONE',  ( 1.634013266578586158E-13, 2.999519565323702626E-32, 46.79999999999999716 ) ) ;
#52 = DIRECTION ( 'NONE',  ( 0.0000000000000000000, 1.000000000000000000, 0.0000000000000000000 ) ) ;
#53 = CARTESIAN_POINT ( 'NONE',  ( 3.533379114909250198E-13, -1.239342560737121245E-14, 101.1999999999999886 ) ) ;
#54 = CARTESIAN_POINT ( 'NONE',  ( 0.0000000000000000000, 0.0000000000000000000, 0.0000000000000000000 ) ) ;
#55 = VERTEX_POINT ( 'NONE', #99 ) ;
#56 = CLOSED_SHELL ( 'NONE', ( #44, #28, #13, #49, #218, #61, #113 ) ) ;
#57 = FACE_BOUND ( 'NONE', #126, .T. ) ;
#58 = ORIENTED_EDGE ( 'NONE', *, *, #242, .F. ) ;
#59 = DIRECTION ( 'NONE',  ( 0.0000000000000000000, -1.000000000000000000, 0.0000000000000000000 ) ) ;
#60 = FACE_OUTER_BOUND ( 'NONE', #139, .T. ) ;
#61 = ADVANCED_FACE ( 'NONE', ( #256, #38 ), #109, .F. ) ;
#62 = COORDINATED_UNIVERSAL_TIME_OFFSET ( 1, 0, .AHEAD. ) ;
#63 = APPROVAL ( #260, 'UNSPECIFIED' ) ;
#64 = PERSON_AND_ORGANIZATION_ROLE ( 'creator' ) ;
#65 = COORDINATED_UNIVERSAL_TIME_OFFSET ( 1, 0, .AHEAD. ) ;
#66 = AXIS2_PLACEMENT_3D ( 'NONE', #95, #194, #8 ) ;
#67 = AXIS2_PLACEMENT_3D ( 'NONE', #246, #176, #228 ) ;
#68 = EDGE_CURVE ( 'NONE', #216, #216, #144, .T. ) ;
#69 = DATE_AND_TIME ( #18, #248 ) ;
#70 = EDGE_LOOP ( 'NONE', ( #135 ) ) ;
#71 = DIRECTION ( 'NONE',  ( -3.851859888774481340E-31, -1.000000000000000000, -1.084202172485507146E-16 ) ) ;
#72 = DIRECTION ( 'NONE',  ( 0.0000000000000000000, 1.000000000000000000, 0.0000000000000000000 ) ) ;
#73 = APPROVAL_PERSON_ORGANIZATION ( #168, #92, #183 ) ;
#74 = DIRECTION ( 'NONE',  ( 4.275831445896958607E-31, 1.000000000000000000, 1.224646799147353207E-16 ) ) ;
#75 = PERSON ( 'UNSPECIFIED', 'UNSPECIFIED', 'UNSPECIFIED', ('UNSPECIFIED'), ('UNSPECIFIED'), ('UNSPECIFIED') ) ;
#76 = EDGE_LOOP ( 'NONE', ( #11 ) ) ;
#77 = VERTEX_POINT ( 'NONE', #82 ) ;
#78 = ORIENTED_EDGE ( 'NONE', *, *, #242, .T. ) ;
#79 = MANIFOLD_SOLID_BREP ( 'Corps-Déplacer/Copier1[1]', #56 ) ;
#80 = CIRCLE ( 'NONE', #153, 3.200000000000002842 ) ;
#81 = EDGE_LOOP ( 'NONE', ( #199 ) ) ;
#82 = CARTESIAN_POINT ( 'NONE',  ( 3.533379114909250198E-13, 3.999999999999989786, 101.1999999999999886 ) ) ;
#83 = CC_DESIGN_SECURITY_CLASSIFICATION ( #202, ( #20 ) ) ;
#84 = PERSON_AND_ORGANIZATION_ROLE ( 'creator' ) ;
#85 = AXIS2_PLACEMENT_3D ( 'NONE', #54, #249, #132 ) ;
#86 = CIRCLE ( 'NONE', #116, 3.600000000000016964 ) ;
#87 = LOCAL_TIME ( 14, 57, 14.00000000000000000, #254 ) ;
#88 = MECHANICAL_CONTEXT ( 'NONE', #163, 'mechanical' ) ;
#89 = AXIS2_PLACEMENT_3D ( 'NONE', #195, #148, #239 ) ;
#90 = DIRECTION ( 'NONE',  ( -4.275831445896958607E-31, -1.000000000000000000, -1.224646799147353207E-16 ) ) ;
#91 = ADVANCED_BREP_SHAPE_REPRESENTATION ( '960183', ( #79, #240, #25 ), #201 ) ;
#92 = APPROVAL ( #14, 'UNSPECIFIED' ) ;
#93 = CARTESIAN_POINT ( 'NONE',  ( 1.918945011316824122E-13, -4.000000000000022204, 54.96076951545864375 ) ) ;
#94 = CARTESIAN_POINT ( 'NONE',  ( 5.083181123339289718E-15, -1.782939929516086737E-16, 1.455880937064824687 ) ) ;
#95 = CARTESIAN_POINT ( 'NONE',  ( 0.0000000000000000000, 0.0000000000000000000, 0.0000000000000000000 ) ) ;
#96 = EDGE_LOOP ( 'NONE', ( #252 ) ) ;
#97 = AXIS2_PLACEMENT_3D ( 'NONE', #250, #115, #59 ) ;
#98 = FACE_OUTER_BOUND ( 'NONE', #101, .T. ) ;
#99 = CARTESIAN_POINT ( 'NONE',  ( 4.574863011005381730E-15, -3.600000000000008527, 1.310292843358348502 ) ) ;
#100 = CARTESIAN_POINT ( 'NONE',  ( 1.634013266578586158E-13, -2.025117803960195479E-14, 46.79999999999999716 ) ) ;
#101 = EDGE_LOOP ( 'NONE', ( #58 ) ) ;
#102 = EDGE_CURVE ( 'NONE', #55, #55, #181, .T. ) ;
#103 = AXIS2_PLACEMENT_3D ( 'NONE', #247, #244, #72 ) ;
#104 =( NAMED_UNIT ( * ) SI_UNIT ( $, .STERADIAN. ) SOLID_ANGLE_UNIT ( ) );
#105 = APPROVAL_PERSON_ORGANIZATION ( #48, #63, #164 ) ;
#106 = PLANE ( 'NONE',  #255 ) ;
#107 = DATE_AND_TIME ( #147, #26 ) ;
#108 = CARTESIAN_POINT ( 'NONE',  ( 1.634013266578586158E-13, 2.999519565323702626E-32, 46.79999999999999716 ) ) ;
#109 = TOROIDAL_SURFACE ( 'NONE', #67, 4.600000000000016520, 0.9999999999999991118 ) ;
#110 = DIRECTION ( 'NONE',  ( 3.491481338843133355E-15, -1.224646799147353207E-16, 1.000000000000000000 ) ) ;
#111 = DIRECTION ( 'NONE',  ( 0.0000000000000000000, -1.000000000000000000, 0.0000000000000000000 ) ) ;
#112 = DESIGN_CONTEXT ( 'detailed design', #30, 'design' ) ;
#113 = ADVANCED_FACE ( 'NONE', ( #210 ), #106, .F. ) ;
#114 = APPROVAL ( #223, 'UNSPECIFIED' ) ;
#115 = DIRECTION ( 'NONE',  ( 3.491481338843133355E-15, -4.327174794786742882E-16, 1.000000000000000000 ) ) ;
#116 = AXIS2_PLACEMENT_3D ( 'NONE', #191, #175, #136 ) ;
#117 = APPROVAL_PERSON_ORGANIZATION ( #185, #114, #21 ) ;
#118 = DIRECTION ( 'NONE',  ( 0.0000000000000000000, -1.000000000000000000, 0.0000000000000000000 ) ) ;
#119 = CARTESIAN_POINT ( 'NONE',  ( 1.902857329669507616E-13, 3.733974596215555497, 54.50000000000000000 ) ) ;
#120 = EDGE_LOOP ( 'NONE', ( #231 ) ) ;
#121 = LOCAL_TIME ( 14, 57, 14.00000000000000000, #62 ) ;
#122 = CARTESIAN_POINT ( 'NONE',  ( 0.0000000000000000000, 0.0000000000000000000, 0.0000000000000000000 ) ) ;
#123 = COORDINATED_UNIVERSAL_TIME_OFFSET ( 1, 0, .AHEAD. ) ;
#124 = CONICAL_SURFACE ( 'NONE', #241, 3.999999999999989786, 1.221730476396026610 ) ;
#125 = APPLICATION_PROTOCOL_DEFINITION ( 'international standard', 'config_control_design', 1994, #30 ) ;
#126 = EDGE_LOOP ( 'NONE', ( #78 ) ) ;
#127 = CC_DESIGN_APPROVAL ( #63, ( #184 ) ) ;
#128 = FACE_OUTER_BOUND ( 'NONE', #76, .T. ) ;
#129 = ORIENTED_EDGE ( 'NONE', *, *, #138, .T. ) ;
#130 = CYLINDRICAL_SURFACE ( 'NONE', #66, 3.600000000000008527 ) ;
#131 = CYLINDRICAL_SURFACE ( 'NONE', #259, 3.600000000000008527 ) ;
#132 = DIRECTION ( 'NONE',  ( 4.275831445896958607E-31, 1.000000000000000000, 1.224646799147353207E-16 ) ) ;
#133 = CONICAL_SURFACE ( 'NONE', #97, 4.500000000000021316, 0.5235987755983013692 ) ;
#134 = CC_DESIGN_APPROVAL ( #114, ( #202 ) ) ;
#135 = ORIENTED_EDGE ( 'NONE', *, *, #182, .F. ) ;
#136 = DIRECTION ( 'NONE',  ( 0.0000000000000000000, 1.000000000000000000, 0.0000000000000000000 ) ) ;
#137 = DIRECTION ( 'NONE',  ( 0.0000000000000000000, 1.000000000000000000, 0.0000000000000000000 ) ) ;
#138 = EDGE_CURVE ( 'NONE', #34, #34, #169, .T. ) ;
#139 = EDGE_LOOP ( 'NONE', ( #12 ) ) ;
#140 = ADVANCED_FACE ( 'NONE', ( #24 ), #124, .T. ) ;
#141 = CC_DESIGN_PERSON_AND_ORGANIZATION_ASSIGNMENT ( #257, #84, ( #184 ) ) ;
#142 =( NAMED_UNIT ( * ) PLANE_ANGLE_UNIT ( ) SI_UNIT ( $, .RADIAN. ) );
#143 = PERSON_AND_ORGANIZATION ( #75, #209 ) ;
#144 = CIRCLE ( 'NONE', #29, 3.600000000000008527 ) ;
#145 = ADVANCED_FACE ( 'NONE', ( #151, #245 ), #130, .T. ) ;
#146 = PRODUCT ( '960183', '960183', '', ( #88 ) ) ;
#147 = CALENDAR_DATE ( 2021, 13, 10 ) ;
#148 = DIRECTION ( 'NONE',  ( -3.491481338843133355E-15, 1.224646799147353207E-16, -1.000000000000000000 ) ) ;
#149 = VERTEX_POINT ( 'NONE', #188 ) ;
#150 = DIRECTION ( 'NONE',  ( -3.491481338843133355E-15, 1.224646799147353207E-16, -1.000000000000000000 ) ) ;
#151 = FACE_OUTER_BOUND ( 'NONE', #221, .T. ) ;
#152 = EDGE_CURVE ( 'NONE', #178, #178, #39, .T. ) ;
#153 = AXIS2_PLACEMENT_3D ( 'NONE', #219, #37, #52 ) ;
#154 = DIRECTION ( 'NONE',  ( 0.0000000000000000000, -1.000000000000000000, 0.0000000000000000000 ) ) ;
#155 = FACE_OUTER_BOUND ( 'NONE', #197, .T. ) ;
#156 = FACE_OUTER_BOUND ( 'NONE', #70, .T. ) ;
#157 = CARTESIAN_POINT ( 'NONE',  ( 1.634013266578586158E-13, -3.600000000000028955, 46.79999999999999716 ) ) ;
#158 = EDGE_LOOP ( 'NONE', ( #7 ) ) ;
#159 = CC_DESIGN_APPROVAL ( #92, ( #20 ) ) ;
#160 = CC_DESIGN_DATE_AND_TIME_ASSIGNMENT ( #206, #236, ( #202 ) ) ;
#161 = ORIENTED_EDGE ( 'NONE', *, *, #68, .F. ) ;
#162 = CC_DESIGN_PERSON_AND_ORGANIZATION_ASSIGNMENT ( #170, #205, ( #146 ) ) ;
#163 = APPLICATION_CONTEXT ( 'configuration controlled 3d designs of mechanical parts and assemblies' ) ;
#164 = APPROVAL_ROLE ( '' ) ;
#165 = CC_DESIGN_PERSON_AND_ORGANIZATION_ASSIGNMENT ( #143, #64, ( #20 ) ) ;
#166 = LOCAL_TIME ( 14, 57, 14.00000000000000000, #171 ) ;
#167 = APPROVAL_DATE_TIME ( #35, #92 ) ;
#168 = PERSON_AND_ORGANIZATION ( #75, #209 ) ;
#169 = CIRCLE ( 'NONE', #232, 3.733974596215578590 ) ;
#170 = PERSON_AND_ORGANIZATION ( #75, #209 ) ;
#171 = COORDINATED_UNIVERSAL_TIME_OFFSET ( 1, 0, .AHEAD. ) ;
#172 = CC_DESIGN_DATE_AND_TIME_ASSIGNMENT ( #69, #50, ( #184 ) ) ;
#173 = PLANE ( 'NONE',  #1 ) ;
#174 = EDGE_LOOP ( 'NONE', ( #211 ) ) ;
#175 = DIRECTION ( 'NONE',  ( -3.491481338843133355E-15, 4.327174794786742882E-16, -1.000000000000000000 ) ) ;
#176 = DIRECTION ( 'NONE',  ( -3.491481338843133355E-15, 4.327174794786742882E-16, -1.000000000000000000 ) ) ;
#177 = DIRECTION ( 'NONE',  ( -3.491481338843133355E-15, 4.327174794786742882E-16, -1.000000000000000000 ) ) ;
#178 = VERTEX_POINT ( 'NONE', #253 ) ;
#179 = FACE_BOUND ( 'NONE', #96, .T. ) ;
#180 = CLOSED_SHELL ( 'NONE', ( #140, #145, #23 ) ) ;
#181 = CIRCLE ( 'NONE', #89, 3.600000000000008527 ) ;
#182 = EDGE_CURVE ( 'NONE', #77, #77, #186, .T. ) ;
#183 = APPROVAL_ROLE ( '' ) ;
#184 = PRODUCT_DEFINITION ( 'UNKNOWN', '', #20, #112 ) ;
#185 = PERSON_AND_ORGANIZATION ( #75, #209 ) ;
#186 = CIRCLE ( 'NONE', #227, 4.000000000000001776 ) ;
#187 = CARTESIAN_POINT ( 'NONE',  ( 1.902857329669507616E-13, -2.358310263158774713E-14, 54.50000000000000000 ) ) ;
#188 = CARTESIAN_POINT ( 'NONE',  ( 3.561310965619995770E-13, 3.199999999999989964, 102.0000000000000000 ) ) ;
#189 = UNCERTAINTY_MEASURE_WITH_UNIT (LENGTH_MEASURE( 1.000000000000000082E-05 ), #16, 'distance_accuracy_value', 'NONE');
#190 = DIRECTION ( 'NONE',  ( -3.491481338843133355E-15, 1.224646799147353207E-16, -1.000000000000000000 ) ) ;
#191 = CARTESIAN_POINT ( 'NONE',  ( 1.885399922975292012E-13, -2.336674389184841156E-14, 54.00000000000000000 ) ) ;
#192 = DIRECTION ( 'NONE',  ( 1.510825004591027855E-30, 1.000000000000000000, 4.327174794786742882E-16 ) ) ;
#193 = AXIS2_PLACEMENT_3D ( 'NONE', #100, #190, #154 ) ;
#194 = DIRECTION ( 'NONE',  ( -3.491481338843133355E-15, 4.327174794786742882E-16, -1.000000000000000000 ) ) ;
#195 = CARTESIAN_POINT ( 'NONE',  ( 4.574863011005383308E-15, -1.604645936564486001E-16, 1.310292843358348946 ) ) ;
#196 = ORIENTED_EDGE ( 'NONE', *, *, #102, .T. ) ;
#197 = EDGE_LOOP ( 'NONE', ( #230 ) ) ;
#198 = FACE_OUTER_BOUND ( 'NONE', #120, .T. ) ;
#199 = ORIENTED_EDGE ( 'NONE', *, *, #102, .F. ) ;
#200 = DATE_AND_TIME ( #233, #121 ) ;
#201 =( GEOMETRIC_REPRESENTATION_CONTEXT ( 3 ) GLOBAL_UNCERTAINTY_ASSIGNED_CONTEXT ( ( #189 ) ) GLOBAL_UNIT_ASSIGNED_CONTEXT ( ( #16, #142, #104 ) ) REPRESENTATION_CONTEXT ( 'NONE', 'WORKASPACE' ) );
#202 = SECURITY_CLASSIFICATION ( '', '', #238 ) ;
#203 = VERTEX_POINT ( 'NONE', #222 ) ;
#204 = PERSON_AND_ORGANIZATION_ROLE ( 'design_supplier' ) ;
#205 = PERSON_AND_ORGANIZATION_ROLE ( 'design_owner' ) ;
#206 = DATE_AND_TIME ( #46, #166 ) ;
#207 = DIRECTION ( 'NONE',  ( 0.0000000000000000000, 1.000000000000000000, 0.0000000000000000000 ) ) ;
#208 = CARTESIAN_POINT ( 'NONE',  ( 3.561310965619995770E-13, 2.399615652258955477E-32, 102.0000000000000000 ) ) ;
#209 = ORGANIZATION ( 'UNSPECIFIED', 'UNSPECIFIED', '' ) ;
#210 = FACE_OUTER_BOUND ( 'NONE', #158, .T. ) ;
#211 = ORIENTED_EDGE ( 'NONE', *, *, #263, .T. ) ;
#212 = CARTESIAN_POINT ( 'NONE',  ( 1.918945011316824122E-13, -2.378248565493761888E-14, 54.96076951545864375 ) ) ;
#213 = CARTESIAN_POINT ( 'NONE',  ( 1.634013266578586158E-13, -2.025117803960195479E-14, 46.79999999999999716 ) ) ;
#214 = FACE_OUTER_BOUND ( 'NONE', #174, .T. ) ;
#215 = PLANE ( 'NONE',  #42 ) ;
#216 = VERTEX_POINT ( 'NONE', #157 ) ;
#217 = CALENDAR_DATE ( 2021, 13, 10 ) ;
#218 = ADVANCED_FACE ( 'NONE', ( #179, #198 ), #133, .T. ) ;
#219 = CARTESIAN_POINT ( 'NONE',  ( 3.561310965619995770E-13, -1.249139735130300089E-14, 102.0000000000000000 ) ) ;
#220 = AXIS2_PLACEMENT_3D ( 'NONE', #212, #9, #111 ) ;
#221 = EDGE_LOOP ( 'NONE', ( #36 ) ) ;
#222 = CARTESIAN_POINT ( 'NONE',  ( 1.885399922975292012E-13, 3.599999999999993427, 54.00000000000000000 ) ) ;
#223 = APPROVAL_STATUS ( 'not_yet_approved' ) ;
#224 = CONICAL_SURFACE ( 'NONE', #103, 3.200000000000002842, 0.7853981633974420618 ) ;
#225 = APPROVAL_DATE_TIME ( #107, #114 ) ;
#226 = DIRECTION ( 'NONE',  ( -3.491481338843133355E-15, 4.327174794786742882E-16, -1.000000000000000000 ) ) ;
#227 = AXIS2_PLACEMENT_3D ( 'NONE', #53, #6, #137 ) ;
#228 = DIRECTION ( 'NONE',  ( 1.510825004591027855E-30, 1.000000000000000000, 4.327174794786742389E-16 ) ) ;
#229 = CYLINDRICAL_SURFACE ( 'NONE', #85, 3.999999999999998224 ) ;
#230 = ORIENTED_EDGE ( 'NONE', *, *, #182, .T. ) ;
#231 = ORIENTED_EDGE ( 'NONE', *, *, #258, .F. ) ;
#232 = AXIS2_PLACEMENT_3D ( 'NONE', #187, #226, #207 ) ;
#233 = CALENDAR_DATE ( 2021, 13, 10 ) ;
#234 = EDGE_LOOP ( 'NONE', ( #5 ) ) ;
#235 = PRODUCT_RELATED_PRODUCT_CATEGORY ( 'detail', '', ( #146 ) ) ;
#236 = DATE_TIME_ROLE ( 'classification_date' ) ;
#237 = APPROVAL_DATE_TIME ( #200, #63 ) ;
#238 = SECURITY_CLASSIFICATION_LEVEL ( 'unclassified' ) ;
#239 = DIRECTION ( 'NONE',  ( -4.279844320860514387E-31, -1.000000000000000000, -1.204669080539446632E-16 ) ) ;
#240 = MANIFOLD_SOLID_BREP ( 'Corps-Déplacer/Copier1[2]', #180 ) ;
#241 = AXIS2_PLACEMENT_3D ( 'NONE', #94, #243, #71 ) ;
#242 = EDGE_CURVE ( 'NONE', #149, #149, #80, .T. ) ;
#243 = DIRECTION ( 'NONE',  ( 3.491481338843133355E-15, -1.224646799147353207E-16, 1.000000000000000000 ) ) ;
#244 = DIRECTION ( 'NONE',  ( -3.491481338843133355E-15, 1.224646799147353207E-16, -1.000000000000000000 ) ) ;
#245 = FACE_OUTER_BOUND ( 'NONE', #81, .T. ) ;
#246 = CARTESIAN_POINT ( 'NONE',  ( 1.885399922975292012E-13, -2.341876692568689577E-14, 54.00000000000000000 ) ) ;
#247 = CARTESIAN_POINT ( 'NONE',  ( 3.561310965619995770E-13, -1.249139735130300089E-14, 102.0000000000000000 ) ) ;
#248 = LOCAL_TIME ( 14, 57, 14.00000000000000000, #123 ) ;
#249 = DIRECTION ( 'NONE',  ( -3.491481338843133355E-15, 1.224646799147353207E-16, -1.000000000000000000 ) ) ;
#250 = CARTESIAN_POINT ( 'NONE',  ( 1.949182126679599670E-13, -2.415722998482773870E-14, 55.82679491924311321 ) ) ;
#251 = DIRECTION ( 'NONE',  ( -3.491481338843133355E-15, 1.224646799147353207E-16, -1.000000000000000000 ) ) ;
#252 = ORIENTED_EDGE ( 'NONE', *, *, #138, .F. ) ;
#253 = CARTESIAN_POINT ( 'NONE',  ( 1.634013266578586158E-13, -3.600000000000028955, 46.79999999999999716 ) ) ;
#254 = COORDINATED_UNIVERSAL_TIME_OFFSET ( 1, 0, .AHEAD. ) ;
#255 = AXIS2_PLACEMENT_3D ( 'NONE', #108, #22, #90 ) ;
#256 = FACE_OUTER_BOUND ( 'NONE', #234, .T. ) ;
#257 = PERSON_AND_ORGANIZATION ( #75, #209 ) ;
#258 = EDGE_CURVE ( 'NONE', #2, #2, #32, .T. ) ;
#259 = AXIS2_PLACEMENT_3D ( 'NONE', #10, #177, #192 ) ;
#260 = APPROVAL_STATUS ( 'not_yet_approved' ) ;
#261 = SHAPE_DEFINITION_REPRESENTATION ( #15, #91 ) ;
#262 = APPLICATION_PROTOCOL_DEFINITION ( 'international standard', 'config_control_design', 1994, #163 ) ;
#263 = EDGE_CURVE ( 'NONE', #203, #203, #86, .T. ) ;
ENDSEC;
END-ISO-10303-21;
