ISO-10303-21;
HEADER;
FILE_DESCRIPTION (( 'STEP AP203' ),
    '1' );
FILE_NAME ('960182.step',
    '2021-10-13T12:57:13',
    ( '' ),
    ( '' ),
    'SwSTEP 2.0',
    'SolidWorks 2019',
    '' );
FILE_SCHEMA (( 'CONFIG_CONTROL_DESIGN' ));
ENDSEC;

DATA;
#1 = DIRECTION ( 'NONE',  ( -3.491481338843133355E-15, 1.224646799147353207E-16, -1.000000000000000000 ) ) ;
#2 = APPROVAL_DATE_TIME ( #70, #135 ) ;
#3 = APPROVAL_ROLE ( '' ) ;
#4 = PERSON_AND_ORGANIZATION_ROLE ( 'classification_officer' ) ;
#5 = ORIENTED_EDGE ( 'NONE', *, *, #173, .F. ) ;
#6 = ADVANCED_FACE ( 'NONE', ( #74, #112 ), #46, .F. ) ;
#7 = DIRECTION ( 'NONE',  ( 0.0000000000000000000, 0.0000000000000000000, 1.000000000000000000 ) ) ;
#8 = DATE_TIME_ROLE ( 'classification_date' ) ;
#9 = ORIENTED_EDGE ( 'NONE', *, *, #111, .T. ) ;
#10 = APPROVAL_DATE_TIME ( #186, #40 ) ;
#11 = CIRCLE ( 'NONE', #200, 3.500000000000015987 ) ;
#12 = DIRECTION ( 'NONE',  ( -3.491481338843133355E-15, 4.327174794786742882E-16, -1.000000000000000000 ) ) ;
#13 = DIRECTION ( 'NONE',  ( -3.491481338843133355E-15, 4.327174794786742882E-16, -1.000000000000000000 ) ) ;
#14 = CC_DESIGN_PERSON_AND_ORGANIZATION_ASSIGNMENT ( #221, #26, ( #117 ) ) ;
#15 = DIRECTION ( 'NONE',  ( 0.0000000000000000000, -1.000000000000000000, 0.0000000000000000000 ) ) ;
#16 = CARTESIAN_POINT ( 'NONE',  ( 0.0000000000000000000, 0.0000000000000000000, 0.0000000000000000000 ) ) ;
#17 = CONICAL_SURFACE ( 'NONE', #213, 4.500000000000018652, 0.5235987755982990377 ) ;
#18 = PLANE ( 'NONE',  #202 ) ;
#19 = ADVANCED_FACE ( 'NONE', ( #174 ), #18, .F. ) ;
#20 = CIRCLE ( 'NONE', #220, 3.500000000000008438 ) ;
#21 = VERTEX_POINT ( 'NONE', #193 ) ;
#22 = FACE_OUTER_BOUND ( 'NONE', #166, .T. ) ;
#23 = FACE_OUTER_BOUND ( 'NONE', #27, .T. ) ;
#24 = CC_DESIGN_PERSON_AND_ORGANIZATION_ASSIGNMENT ( #241, #141, ( #38 ) ) ;
#25 = CALENDAR_DATE ( 2021, 13, 10 ) ;
#26 = PERSON_AND_ORGANIZATION_ROLE ( 'design_supplier' ) ;
#27 = EDGE_LOOP ( 'NONE', ( #187 ) ) ;
#28 = ADVANCED_FACE ( 'NONE', ( #56, #130 ), #51, .T. ) ;
#29 = AXIS2_PLACEMENT_3D ( 'NONE', #80, #155, #237 ) ;
#30 = ORIENTED_EDGE ( 'NONE', *, *, #111, .F. ) ;
#31 = EDGE_LOOP ( 'NONE', ( #5 ) ) ;
#32 = CIRCLE ( 'NONE', #94, 3.200000000000002842 ) ;
#33 = ORIENTED_EDGE ( 'NONE', *, *, #261, .F. ) ;
#34 = ORIENTED_EDGE ( 'NONE', *, *, #173, .T. ) ;
#35 =( NAMED_UNIT ( * ) PLANE_ANGLE_UNIT ( ) SI_UNIT ( $, .RADIAN. ) );
#36 = DIRECTION ( 'NONE',  ( -3.491481338843133355E-15, 1.224646799147353207E-16, -1.000000000000000000 ) ) ;
#37 = AXIS2_PLACEMENT_3D ( 'NONE', #188, #13, #60 ) ;
#38 = PRODUCT_DEFINITION ( 'UNKNOWN', '', #117, #212 ) ;
#39 = VERTEX_POINT ( 'NONE', #114 ) ;
#40 = APPROVAL ( #201, 'UNSPECIFIED' ) ;
#41 = CC_DESIGN_APPROVAL ( #129, ( #117 ) ) ;
#42 = CYLINDRICAL_SURFACE ( 'NONE', #125, 3.999999999999998224 ) ;
#43 = CARTESIAN_POINT ( 'NONE',  ( 1.588624009173625740E-13, -1.968864531627967854E-14, 45.50000000000000000 ) ) ;
#44 = DIRECTION ( 'NONE',  ( -3.491481338843133355E-15, 1.224646799147353207E-16, -1.000000000000000000 ) ) ;
#45 = DATE_AND_TIME ( #181, #61 ) ;
#46 = TOROIDAL_SURFACE ( 'NONE', #75, 4.500000000000015987, 0.9999999999999995559 ) ;
#47 = PERSON_AND_ORGANIZATION ( #218, #147 ) ;
#48 = ORIENTED_EDGE ( 'NONE', *, *, #203, .F. ) ;
#49 = DIRECTION ( 'NONE',  ( 1.000000000000000000, 0.0000000000000000000, 0.0000000000000000000 ) ) ;
#50 = PERSON_AND_ORGANIZATION ( #218, #147 ) ;
#51 = CONICAL_SURFACE ( 'NONE', #63, 3.200000000000002842, 0.7853981633974420618 ) ;
#52 = ORIENTED_EDGE ( 'NONE', *, *, #91, .T. ) ;
#53 = EDGE_LOOP ( 'NONE', ( #69 ) ) ;
#54 =( GEOMETRIC_REPRESENTATION_CONTEXT ( 3 ) GLOBAL_UNCERTAINTY_ASSIGNED_CONTEXT ( ( #168 ) ) GLOBAL_UNIT_ASSIGNED_CONTEXT ( ( #99, #35, #176 ) ) REPRESENTATION_CONTEXT ( 'NONE', 'WORKASPACE' ) );
#55 = ADVANCED_FACE ( 'NONE', ( #77, #259 ), #17, .T. ) ;
#56 = FACE_OUTER_BOUND ( 'NONE', #243, .T. ) ;
#57 = CARTESIAN_POINT ( 'NONE',  ( 1.850485109586860552E-13, -2.293402641236973727E-14, 53.00000000000000000 ) ) ;
#58 = DIRECTION ( 'NONE',  ( 3.491481338843133355E-15, -4.327174794786742882E-16, 1.000000000000000000 ) ) ;
#59 = VERTEX_POINT ( 'NONE', #233 ) ;
#60 = DIRECTION ( 'NONE',  ( 1.510825004591027855E-30, 1.000000000000000000, 4.327174794786742389E-16 ) ) ;
#61 = LOCAL_TIME ( 14, 57, 13.00000000000000000, #67 ) ;
#62 = PLANE ( 'NONE',  #89 ) ;
#63 = AXIS2_PLACEMENT_3D ( 'NONE', #152, #113, #134 ) ;
#64 = CARTESIAN_POINT ( 'NONE',  ( 1.833027702892644948E-13, 3.499999999999993783, 52.50000000000000000 ) ) ;
#65 = VERTEX_POINT ( 'NONE', #120 ) ;
#66 = ADVANCED_FACE ( 'NONE', ( #234, #97 ), #149, .T. ) ;
#67 = COORDINATED_UNIVERSAL_TIME_OFFSET ( 1, 0, .AHEAD. ) ;
#68 = CIRCLE ( 'NONE', #81, 3.500000000000008438 ) ;
#69 = ORIENTED_EDGE ( 'NONE', *, *, #226, .F. ) ;
#70 = DATE_AND_TIME ( #197, #71 ) ;
#71 = LOCAL_TIME ( 14, 57, 13.00000000000000000, #165 ) ;
#72 = DIRECTION ( 'NONE',  ( -3.491481338843133355E-15, 1.224646799147353207E-16, -1.000000000000000000 ) ) ;
#73 = EDGE_CURVE ( 'NONE', #139, #139, #137, .T. ) ;
#74 = FACE_OUTER_BOUND ( 'NONE', #164, .T. ) ;
#75 = AXIS2_PLACEMENT_3D ( 'NONE', #228, #205, #230 ) ;
#76 = DIRECTION ( 'NONE',  ( -4.275831445896958607E-31, -1.000000000000000000, -1.224646799147353207E-16 ) ) ;
#77 = FACE_BOUND ( 'NONE', #225, .T. ) ;
#78 = VERTEX_POINT ( 'NONE', #64 ) ;
#79 = MANIFOLD_SOLID_BREP ( 'Corps-Déplacer/Copier1[1]', #256 ) ;
#80 = CARTESIAN_POINT ( 'NONE',  ( 0.0000000000000000000, 0.0000000000000000000, 0.0000000000000000000 ) ) ;
#81 = AXIS2_PLACEMENT_3D ( 'NONE', #206, #211, #217 ) ;
#82 = DIRECTION ( 'NONE',  ( 3.491481338843133355E-15, -1.224646799147353207E-16, 1.000000000000000000 ) ) ;
#83 = EDGE_LOOP ( 'NONE', ( #9 ) ) ;
#84 = CALENDAR_DATE ( 2021, 13, 10 ) ;
#85 = CC_DESIGN_APPROVAL ( #135, ( #38 ) ) ;
#86 = APPROVAL_ROLE ( '' ) ;
#87 = APPLICATION_PROTOCOL_DEFINITION ( 'international standard', 'config_control_design', 1994, #122 ) ;
#88 = SHAPE_DEFINITION_REPRESENTATION ( #106, #185 ) ;
#89 = AXIS2_PLACEMENT_3D ( 'NONE', #254, #82, #76 ) ;
#90 = DIRECTION ( 'NONE',  ( 0.0000000000000000000, 1.000000000000000000, 0.0000000000000000000 ) ) ;
#91 = EDGE_CURVE ( 'NONE', #21, #21, #260, .T. ) ;
#92 = CARTESIAN_POINT ( 'NONE',  ( 3.533379114909250198E-13, -1.239342560737121245E-14, 101.1999999999999886 ) ) ;
#93 = FACE_OUTER_BOUND ( 'NONE', #83, .T. ) ;
#94 = AXIS2_PLACEMENT_3D ( 'NONE', #215, #1, #140 ) ;
#95 = FACE_OUTER_BOUND ( 'NONE', #126, .T. ) ;
#96 = APPROVAL_PERSON_ORGANIZATION ( #183, #40, #86 ) ;
#97 = FACE_OUTER_BOUND ( 'NONE', #53, .T. ) ;
#98 = AXIS2_PLACEMENT_3D ( 'NONE', #262, #263, #240 ) ;
#99 =( LENGTH_UNIT ( ) NAMED_UNIT ( * ) SI_UNIT ( .MILLI., .METRE. ) );
#100 = EDGE_CURVE ( 'NONE', #78, #78, #11, .T. ) ;
#101 = DIRECTION ( 'NONE',  ( -3.491481338843133355E-15, 1.224646799147353207E-16, -1.000000000000000000 ) ) ;
#102 = CARTESIAN_POINT ( 'NONE',  ( 1.588624009173625740E-13, -3.500000000000027978, 45.50000000000000000 ) ) ;
#103 = CIRCLE ( 'NONE', #156, 3.633974596215578945 ) ;
#104 = PERSON_AND_ORGANIZATION ( #218, #147 ) ;
#105 = DATE_AND_TIME ( #25, #235 ) ;
#106 = PRODUCT_DEFINITION_SHAPE ( 'NONE', 'NONE',  #38 ) ;
#107 = PERSON_AND_ORGANIZATION ( #218, #147 ) ;
#108 = ORIENTED_EDGE ( 'NONE', *, *, #91, .F. ) ;
#109 = MECHANICAL_CONTEXT ( 'NONE', #122, 'mechanical' ) ;
#110 = CC_DESIGN_APPROVAL ( #40, ( #182 ) ) ;
#111 = EDGE_CURVE ( 'NONE', #119, #119, #20, .T. ) ;
#112 = FACE_OUTER_BOUND ( 'NONE', #159, .T. ) ;
#113 = DIRECTION ( 'NONE',  ( -3.491481338843133355E-15, 1.224646799147353207E-16, -1.000000000000000000 ) ) ;
#114 = CARTESIAN_POINT ( 'NONE',  ( 1.850485109586860552E-13, 3.633974596215555852, 53.00000000000000000 ) ) ;
#115 = DIRECTION ( 'NONE',  ( 0.0000000000000000000, -1.000000000000000000, 0.0000000000000000000 ) ) ;
#116 = PLANE ( 'NONE',  #98 ) ;
#117 = PRODUCT_DEFINITION_FORMATION_WITH_SPECIFIED_SOURCE ( 'ANY', '', #227, .NOT_KNOWN. ) ;
#118 = FACE_OUTER_BOUND ( 'NONE', #128, .T. ) ;
#119 = VERTEX_POINT ( 'NONE', #133 ) ;
#120 = CARTESIAN_POINT ( 'NONE',  ( 1.588624009173625740E-13, -3.500000000000027978, 45.50000000000000000 ) ) ;
#121 = AXIS2_PLACEMENT_3D ( 'NONE', #92, #169, #209 ) ;
#122 = APPLICATION_CONTEXT ( 'configuration controlled 3d designs of mechanical parts and assemblies' ) ;
#123 = APPROVAL_ROLE ( '' ) ;
#124 = ORIENTED_EDGE ( 'NONE', *, *, #100, .T. ) ;
#125 = AXIS2_PLACEMENT_3D ( 'NONE', #16, #44, #231 ) ;
#126 = EDGE_LOOP ( 'NONE', ( #48 ) ) ;
#127 = APPLICATION_CONTEXT ( 'configuration controlled 3d designs of mechanical parts and assemblies' ) ;
#128 = EDGE_LOOP ( 'NONE', ( #52 ) ) ;
#129 = APPROVAL ( #219, 'UNSPECIFIED' ) ;
#130 = FACE_BOUND ( 'NONE', #204, .T. ) ;
#131 = DIRECTION ( 'NONE',  ( 0.0000000000000000000, -1.000000000000000000, 0.0000000000000000000 ) ) ;
#132 = ORIENTED_EDGE ( 'NONE', *, *, #203, .T. ) ;
#133 = CARTESIAN_POINT ( 'NONE',  ( 4.447783482921899014E-15, -3.500000000000008438, 1.273895819931727402 ) ) ;
#134 = DIRECTION ( 'NONE',  ( 0.0000000000000000000, 1.000000000000000000, 0.0000000000000000000 ) ) ;
#135 = APPROVAL ( #158, 'UNSPECIFIED' ) ;
#136 = DIRECTION ( 'NONE',  ( 3.491481338843133355E-15, -1.224646799147353207E-16, 1.000000000000000000 ) ) ;
#137 = CIRCLE ( 'NONE', #121, 4.000000000000001776 ) ;
#138 = CC_DESIGN_PERSON_AND_ORGANIZATION_ASSIGNMENT ( #47, #143, ( #117 ) ) ;
#139 = VERTEX_POINT ( 'NONE', #192 ) ;
#140 = DIRECTION ( 'NONE',  ( 0.0000000000000000000, 1.000000000000000000, 0.0000000000000000000 ) ) ;
#141 = PERSON_AND_ORGANIZATION_ROLE ( 'creator' ) ;
#142 = AXIS2_PLACEMENT_3D ( 'NONE', #253, #58, #15 ) ;
#143 = PERSON_AND_ORGANIZATION_ROLE ( 'creator' ) ;
#144 = EDGE_LOOP ( 'NONE', ( #132 ) ) ;
#145 = CALENDAR_DATE ( 2021, 13, 10 ) ;
#146 = APPLICATION_PROTOCOL_DEFINITION ( 'international standard', 'config_control_design', 1994, #127 ) ;
#147 = ORGANIZATION ( 'UNSPECIFIED', 'UNSPECIFIED', '' ) ;
#148 = ORIENTED_EDGE ( 'NONE', *, *, #73, .F. ) ;
#149 = CYLINDRICAL_SURFACE ( 'NONE', #37, 3.500000000000008438 ) ;
#150 = CC_DESIGN_DATE_AND_TIME_ASSIGNMENT ( #246, #8, ( #182 ) ) ;
#151 = CARTESIAN_POINT ( 'NONE',  ( 3.561310965619995770E-13, 2.399615652258955477E-32, 102.0000000000000000 ) ) ;
#152 = CARTESIAN_POINT ( 'NONE',  ( 3.561310965619995770E-13, -1.249139735130300089E-14, 102.0000000000000000 ) ) ;
#153 = CARTESIAN_POINT ( 'NONE',  ( 1.833027702892644948E-13, -2.271766767263039855E-14, 52.50000000000000000 ) ) ;
#154 = FACE_OUTER_BOUND ( 'NONE', #144, .T. ) ;
#155 = DIRECTION ( 'NONE',  ( -3.491481338843133355E-15, 4.327174794786742882E-16, -1.000000000000000000 ) ) ;
#156 = AXIS2_PLACEMENT_3D ( 'NONE', #57, #172, #258 ) ;
#157 = CYLINDRICAL_SURFACE ( 'NONE', #29, 3.500000000000008438 ) ;
#158 = APPROVAL_STATUS ( 'not_yet_approved' ) ;
#159 = EDGE_LOOP ( 'NONE', ( #250 ) ) ;
#160 = ADVANCED_FACE ( 'NONE', ( #93 ), #175, .T. ) ;
#161 = AXIS2_PLACEMENT_3D ( 'NONE', #189, #136, #177 ) ;
#162 = MANIFOLD_SOLID_BREP ( 'Corps-Déplacer/Copier1[2]', #229 ) ;
#163 = SECURITY_CLASSIFICATION_LEVEL ( 'unclassified' ) ;
#164 = EDGE_LOOP ( 'NONE', ( #207 ) ) ;
#165 = COORDINATED_UNIVERSAL_TIME_OFFSET ( 1, 0, .AHEAD. ) ;
#166 = EDGE_LOOP ( 'NONE', ( #198 ) ) ;
#167 = CARTESIAN_POINT ( 'NONE',  ( 4.447783482921900591E-15, -1.560072438326583722E-16, 1.273895819931727846 ) ) ;
#168 = UNCERTAINTY_MEASURE_WITH_UNIT (LENGTH_MEASURE( 1.000000000000000082E-05 ), #99, 'distance_accuracy_value', 'NONE');
#169 = DIRECTION ( 'NONE',  ( -3.491481338843133355E-15, 1.224646799147353207E-16, -1.000000000000000000 ) ) ;
#170 = DIRECTION ( 'NONE',  ( -4.402125587170814422E-31, -1.000000000000000000, -1.239088197126287859E-16 ) ) ;
#171 = LOCAL_TIME ( 14, 57, 13.00000000000000000, #249 ) ;
#172 = DIRECTION ( 'NONE',  ( -3.491481338843133355E-15, 4.327174794786742882E-16, -1.000000000000000000 ) ) ;
#173 = EDGE_CURVE ( 'NONE', #59, #59, #32, .T. ) ;
#174 = FACE_OUTER_BOUND ( 'NONE', #31, .T. ) ;
#175 = CONICAL_SURFACE ( 'NONE', #161, 3.999999999999989786, 1.221730476396026610 ) ;
#176 =( NAMED_UNIT ( * ) SI_UNIT ( $, .STERADIAN. ) SOLID_ANGLE_UNIT ( ) );
#177 = DIRECTION ( 'NONE',  ( -3.851859888774481340E-31, -1.000000000000000000, -1.084202172485507146E-16 ) ) ;
#178 = APPROVAL_PERSON_ORGANIZATION ( #184, #135, #3 ) ;
#179 = CC_DESIGN_PERSON_AND_ORGANIZATION_ASSIGNMENT ( #104, #199, ( #227 ) ) ;
#180 = ADVANCED_FACE ( 'NONE', ( #22 ), #62, .F. ) ;
#181 = CALENDAR_DATE ( 2021, 13, 10 ) ;
#182 = SECURITY_CLASSIFICATION ( '', '', #163 ) ;
#183 = PERSON_AND_ORGANIZATION ( #218, #147 ) ;
#184 = PERSON_AND_ORGANIZATION ( #218, #147 ) ;
#185 = ADVANCED_BREP_SHAPE_REPRESENTATION ( '960182', ( #79, #162, #191 ), #54 ) ;
#186 = DATE_AND_TIME ( #145, #171 ) ;
#187 = ORIENTED_EDGE ( 'NONE', *, *, #73, .T. ) ;
#188 = CARTESIAN_POINT ( 'NONE',  ( 0.0000000000000000000, 0.0000000000000000000, 0.0000000000000000000 ) ) ;
#189 = CARTESIAN_POINT ( 'NONE',  ( 5.083181123339289718E-15, -1.782939929516086737E-16, 1.455880937064824687 ) ) ;
#190 = DIRECTION ( 'NONE',  ( 4.275831445896958607E-31, 1.000000000000000000, 1.224646799147353207E-16 ) ) ;
#191 = AXIS2_PLACEMENT_3D ( 'NONE', #247, #7, #49 ) ;
#192 = CARTESIAN_POINT ( 'NONE',  ( 3.533379114909250198E-13, 3.999999999999989786, 101.1999999999999886 ) ) ;
#193 = CARTESIAN_POINT ( 'NONE',  ( 1.872620214306732067E-13, -4.000000000000022204, 53.63397459621553054 ) ) ;
#194 = ADVANCED_FACE ( 'NONE', ( #154, #238 ), #157, .T. ) ;
#195 = APPROVAL_PERSON_ORGANIZATION ( #50, #129, #123 ) ;
#196 = COORDINATED_UNIVERSAL_TIME_OFFSET ( 1, 0, .AHEAD. ) ;
#197 = CALENDAR_DATE ( 2021, 13, 10 ) ;
#198 = ORIENTED_EDGE ( 'NONE', *, *, #226, .T. ) ;
#199 = PERSON_AND_ORGANIZATION_ROLE ( 'design_owner' ) ;
#200 = AXIS2_PLACEMENT_3D ( 'NONE', #153, #12, #90 ) ;
#201 = APPROVAL_STATUS ( 'not_yet_approved' ) ;
#202 = AXIS2_PLACEMENT_3D ( 'NONE', #151, #36, #190 ) ;
#203 = EDGE_CURVE ( 'NONE', #208, #208, #68, .T. ) ;
#204 = EDGE_LOOP ( 'NONE', ( #34 ) ) ;
#205 = DIRECTION ( 'NONE',  ( -3.491481338843133355E-15, 4.327174794786742882E-16, -1.000000000000000000 ) ) ;
#206 = CARTESIAN_POINT ( 'NONE',  ( 1.588624009173625740E-13, -1.968864531627967854E-14, 45.50000000000000000 ) ) ;
#207 = ORIENTED_EDGE ( 'NONE', *, *, #100, .F. ) ;
#208 = VERTEX_POINT ( 'NONE', #102 ) ;
#209 = DIRECTION ( 'NONE',  ( 0.0000000000000000000, 1.000000000000000000, 0.0000000000000000000 ) ) ;
#210 = COORDINATED_UNIVERSAL_TIME_OFFSET ( 1, 0, .AHEAD. ) ;
#211 = DIRECTION ( 'NONE',  ( -3.491481338843133355E-15, 1.224646799147353207E-16, -1.000000000000000000 ) ) ;
#212 = DESIGN_CONTEXT ( 'detailed design', #127, 'design' ) ;
#213 = AXIS2_PLACEMENT_3D ( 'NONE', #252, #232, #115 ) ;
#214 = LOCAL_TIME ( 14, 57, 13.00000000000000000, #210 ) ;
#215 = CARTESIAN_POINT ( 'NONE',  ( 3.561310965619995770E-13, -1.249139735130300089E-14, 102.0000000000000000 ) ) ;
#216 = ADVANCED_FACE ( 'NONE', ( #95 ), #116, .T. ) ;
#217 = DIRECTION ( 'NONE',  ( 0.0000000000000000000, -1.000000000000000000, 0.0000000000000000000 ) ) ;
#218 = PERSON ( 'UNSPECIFIED', 'UNSPECIFIED', 'UNSPECIFIED', ('UNSPECIFIED'), ('UNSPECIFIED'), ('UNSPECIFIED') ) ;
#219 = APPROVAL_STATUS ( 'not_yet_approved' ) ;
#220 = AXIS2_PLACEMENT_3D ( 'NONE', #167, #72, #170 ) ;
#221 = PERSON_AND_ORGANIZATION ( #218, #147 ) ;
#222 = EDGE_LOOP ( 'NONE', ( #108 ) ) ;
#223 = DATE_TIME_ROLE ( 'creation_date' ) ;
#224 = AXIS2_PLACEMENT_3D ( 'NONE', #43, #101, #131 ) ;
#225 = EDGE_LOOP ( 'NONE', ( #33 ) ) ;
#226 = EDGE_CURVE ( 'NONE', #65, #65, #245, .T. ) ;
#227 = PRODUCT ( '960182', '960182', '', ( #109 ) ) ;
#228 = CARTESIAN_POINT ( 'NONE',  ( 1.833027702892644948E-13, -2.255140518769849223E-14, 52.50000000000000000 ) ) ;
#229 = CLOSED_SHELL ( 'NONE', ( #160, #194, #216 ) ) ;
#230 = DIRECTION ( 'NONE',  ( 1.510825004591027855E-30, 1.000000000000000000, 4.327174794786743375E-16 ) ) ;
#231 = DIRECTION ( 'NONE',  ( 4.275831445896958607E-31, 1.000000000000000000, 1.224646799147353207E-16 ) ) ;
#232 = DIRECTION ( 'NONE',  ( 3.491481338843133355E-15, -4.327174794786742882E-16, 1.000000000000000000 ) ) ;
#233 = CARTESIAN_POINT ( 'NONE',  ( 3.561310965619995770E-13, 3.199999999999989964, 102.0000000000000000 ) ) ;
#234 = FACE_OUTER_BOUND ( 'NONE', #257, .T. ) ;
#235 = LOCAL_TIME ( 14, 57, 13.00000000000000000, #196 ) ;
#236 = CC_DESIGN_DATE_AND_TIME_ASSIGNMENT ( #45, #223, ( #38 ) ) ;
#237 = DIRECTION ( 'NONE',  ( 1.510825004591027855E-30, 1.000000000000000000, 4.327174794786742389E-16 ) ) ;
#238 = FACE_OUTER_BOUND ( 'NONE', #248, .T. ) ;
#239 = CC_DESIGN_SECURITY_CLASSIFICATION ( #182, ( #117 ) ) ;
#240 = DIRECTION ( 'NONE',  ( -4.275831445896958607E-31, -1.000000000000000000, -1.224646799147353207E-16 ) ) ;
#241 = PERSON_AND_ORGANIZATION ( #218, #147 ) ;
#242 = APPROVAL_DATE_TIME ( #105, #129 ) ;
#243 = EDGE_LOOP ( 'NONE', ( #148 ) ) ;
#244 = PRODUCT_RELATED_PRODUCT_CATEGORY ( 'detail', '', ( #227 ) ) ;
#245 = CIRCLE ( 'NONE', #224, 3.500000000000008438 ) ;
#246 = DATE_AND_TIME ( #84, #214 ) ;
#247 = CARTESIAN_POINT ( 'NONE',  ( 0.0000000000000000000, 0.0000000000000000000, 0.0000000000000000000 ) ) ;
#248 = EDGE_LOOP ( 'NONE', ( #30 ) ) ;
#249 = COORDINATED_UNIVERSAL_TIME_OFFSET ( 1, 0, .AHEAD. ) ;
#250 = ORIENTED_EDGE ( 'NONE', *, *, #261, .T. ) ;
#251 = ADVANCED_FACE ( 'NONE', ( #118, #23 ), #42, .T. ) ;
#252 = CARTESIAN_POINT ( 'NONE',  ( 1.902857329669507616E-13, -2.358310263158774713E-14, 54.50000000000000000 ) ) ;
#253 = CARTESIAN_POINT ( 'NONE',  ( 1.872620214306732067E-13, -2.320835830169762731E-14, 53.63397459621553054 ) ) ;
#254 = CARTESIAN_POINT ( 'NONE',  ( 1.588624009173625740E-13, 2.999519565323704268E-32, 45.50000000000000000 ) ) ;
#255 = CC_DESIGN_PERSON_AND_ORGANIZATION_ASSIGNMENT ( #107, #4, ( #182 ) ) ;
#256 = CLOSED_SHELL ( 'NONE', ( #251, #28, #19, #66, #55, #6, #180 ) ) ;
#257 = EDGE_LOOP ( 'NONE', ( #124 ) ) ;
#258 = DIRECTION ( 'NONE',  ( 0.0000000000000000000, 1.000000000000000000, 0.0000000000000000000 ) ) ;
#259 = FACE_OUTER_BOUND ( 'NONE', #222, .T. ) ;
#260 = CIRCLE ( 'NONE', #142, 3.999999999999998224 ) ;
#261 = EDGE_CURVE ( 'NONE', #39, #39, #103, .T. ) ;
#262 = CARTESIAN_POINT ( 'NONE',  ( 1.588624009173625740E-13, 2.999519565323704268E-32, 45.50000000000000000 ) ) ;
#263 = DIRECTION ( 'NONE',  ( 3.491481338843133355E-15, -1.224646799147353207E-16, 1.000000000000000000 ) ) ;
ENDSEC;
END-ISO-10303-21;
