ISO-10303-21;
HEADER;
FILE_DESCRIPTION (( 'STEP AP203' ),
    '1' );
FILE_NAME ('960181.step',
    '2021-10-13T12:57:13',
    ( '' ),
    ( '' ),
    'SwSTEP 2.0',
    'SolidWorks 2019',
    '' );
FILE_SCHEMA (( 'CONFIG_CONTROL_DESIGN' ));
ENDSEC;

DATA;
#1 = DIRECTION ( 'NONE',  ( -4.275831445896958607E-31, -1.000000000000000000, -1.224646799147353207E-16 ) ) ;
#2 = DIRECTION ( 'NONE',  ( 1.510825004591027855E-30, 1.000000000000000000, 4.327174794786743375E-16 ) ) ;
#3 =( NAMED_UNIT ( * ) PLANE_ANGLE_UNIT ( ) SI_UNIT ( $, .RADIAN. ) );
#4 = SECURITY_CLASSIFICATION ( '', '', #107 ) ;
#5 = CIRCLE ( 'NONE', #131, 3.400000000000007461 ) ;
#6 = PERSON_AND_ORGANIZATION_ROLE ( 'creator' ) ;
#7 = ORIENTED_EDGE ( 'NONE', *, *, #228, .F. ) ;
#8 = PERSON_AND_ORGANIZATION ( #171, #21 ) ;
#9 = DATE_TIME_ROLE ( 'classification_date' ) ;
#10 = APPROVAL_STATUS ( 'not_yet_approved' ) ;
#11 = ORIENTED_EDGE ( 'NONE', *, *, #44, .T. ) ;
#12 = ADVANCED_FACE ( 'NONE', ( #161, #42 ), #120, .T. ) ;
#13 = APPLICATION_CONTEXT ( 'configuration controlled 3d designs of mechanical parts and assemblies' ) ;
#14 = EDGE_LOOP ( 'NONE', ( #7 ) ) ;
#15 = AXIS2_PLACEMENT_3D ( 'NONE', #208, #124, #66 ) ;
#16 = DIRECTION ( 'NONE',  ( -3.491481338843133355E-15, 1.224646799147353207E-16, -1.000000000000000000 ) ) ;
#17 = DIRECTION ( 'NONE',  ( -3.491481338843133355E-15, 4.327174794786742882E-16, -1.000000000000000000 ) ) ;
#18 = EDGE_LOOP ( 'NONE', ( #96 ) ) ;
#19 = UNCERTAINTY_MEASURE_WITH_UNIT (LENGTH_MEASURE( 1.000000000000000082E-05 ), #168, 'distance_accuracy_value', 'NONE');
#20 = CARTESIAN_POINT ( 'NONE',  ( 1.780655482809997885E-13, -2.168404344971008868E-14, 51.00000000000000000 ) ) ;
#21 = ORGANIZATION ( 'UNSPECIFIED', 'UNSPECIFIED', '' ) ;
#22 = DIRECTION ( 'NONE',  ( -3.491481338843133355E-15, 1.224646799147353207E-16, -1.000000000000000000 ) ) ;
#23 = FACE_OUTER_BOUND ( 'NONE', #179, .T. ) ;
#24 = DIRECTION ( 'NONE',  ( 3.491481338843133355E-15, -1.224646799147353207E-16, 1.000000000000000000 ) ) ;
#25 = CC_DESIGN_DATE_AND_TIME_ASSIGNMENT ( #190, #9, ( #4 ) ) ;
#26 = CC_DESIGN_APPROVAL ( #101, ( #4 ) ) ;
#27 = CARTESIAN_POINT ( 'NONE',  ( 1.780655482809997885E-13, 3.399999999999993250, 51.00000000000000000 ) ) ;
#28 = VERTEX_POINT ( 'NONE', #27 ) ;
#29 = DATE_AND_TIME ( #231, #211 ) ;
#30 = AXIS2_PLACEMENT_3D ( 'NONE', #260, #79, #136 ) ;
#31 = CALENDAR_DATE ( 2021, 13, 10 ) ;
#32 = EDGE_LOOP ( 'NONE', ( #114 ) ) ;
#33 = PERSON_AND_ORGANIZATION ( #171, #21 ) ;
#34 = CLOSED_SHELL ( 'NONE', ( #12, #144, #182, #186, #230, #72, #246 ) ) ;
#35 = PERSON_AND_ORGANIZATION ( #171, #21 ) ;
#36 = MANIFOLD_SOLID_BREP ( 'Corps-Déplacer/Copier1[2]', #252 ) ;
#37 = ORIENTED_EDGE ( 'NONE', *, *, #177, .T. ) ;
#38 = EDGE_LOOP ( 'NONE', ( #233 ) ) ;
#39 = CONICAL_SURFACE ( 'NONE', #125, 3.200000000000002842, 0.7853981633974420618 ) ;
#40 = ADVANCED_FACE ( 'NONE', ( #119, #200 ), #257, .T. ) ;
#41 = ORIENTED_EDGE ( 'NONE', *, *, #201, .F. ) ;
#42 = FACE_OUTER_BOUND ( 'NONE', #32, .T. ) ;
#43 = ORIENTED_EDGE ( 'NONE', *, *, #235, .F. ) ;
#44 = EDGE_CURVE ( 'NONE', #185, #185, #214, .T. ) ;
#45 = AXIS2_PLACEMENT_3D ( 'NONE', #140, #17, #180 ) ;
#46 = CARTESIAN_POINT ( 'NONE',  ( 0.0000000000000000000, 0.0000000000000000000, 0.0000000000000000000 ) ) ;
#47 = DIRECTION ( 'NONE',  ( -3.491481338843133355E-15, 4.327174794786742882E-16, -1.000000000000000000 ) ) ;
#48 = CARTESIAN_POINT ( 'NONE',  ( 1.856532532659415561E-13, -2.300897527834775871E-14, 53.17320508075688679 ) ) ;
#49 = CARTESIAN_POINT ( 'NONE',  ( 4.320703954838415508E-15, -3.400000000000007461, 1.237498796505106524 ) ) ;
#50 =( GEOMETRIC_REPRESENTATION_CONTEXT ( 3 ) GLOBAL_UNCERTAINTY_ASSIGNED_CONTEXT ( ( #19 ) ) GLOBAL_UNIT_ASSIGNED_CONTEXT ( ( #168, #3, #123 ) ) REPRESENTATION_CONTEXT ( 'NONE', 'WORKASPACE' ) );
#51 = DIRECTION ( 'NONE',  ( 4.275831445896958607E-31, 1.000000000000000000, 1.224646799147353207E-16 ) ) ;
#52 = DIRECTION ( 'NONE',  ( 0.0000000000000000000, 0.0000000000000000000, 1.000000000000000000 ) ) ;
#53 = COORDINATED_UNIVERSAL_TIME_OFFSET ( 1, 0, .AHEAD. ) ;
#54 = EDGE_LOOP ( 'NONE', ( #111 ) ) ;
#55 = CONICAL_SURFACE ( 'NONE', #160, 4.500000000000018652, 0.5235987755982995928 ) ;
#56 = FACE_OUTER_BOUND ( 'NONE', #218, .T. ) ;
#57 = FACE_OUTER_BOUND ( 'NONE', #54, .T. ) ;
#58 = EDGE_LOOP ( 'NONE', ( #157 ) ) ;
#59 = AXIS2_PLACEMENT_3D ( 'NONE', #165, #203, #51 ) ;
#60 = EDGE_LOOP ( 'NONE', ( #99 ) ) ;
#61 = DIRECTION ( 'NONE',  ( -3.491481338843133355E-15, 4.327174794786742882E-16, -1.000000000000000000 ) ) ;
#62 = CIRCLE ( 'NONE', #95, 3.999999999999998224 ) ;
#63 = AXIS2_PLACEMENT_3D ( 'NONE', #128, #47, #104 ) ;
#64 = FACE_OUTER_BOUND ( 'NONE', #91, .T. ) ;
#65 = DESIGN_CONTEXT ( 'detailed design', #93, 'design' ) ;
#66 = DIRECTION ( 'NONE',  ( 0.0000000000000000000, -1.000000000000000000, 0.0000000000000000000 ) ) ;
#67 = AXIS2_PLACEMENT_3D ( 'NONE', #159, #220, #237 ) ;
#68 = LOCAL_TIME ( 14, 57, 13.00000000000000000, #90 ) ;
#69 = APPROVAL_ROLE ( '' ) ;
#70 = SHAPE_DEFINITION_REPRESENTATION ( #142, #204 ) ;
#71 = ORIENTED_EDGE ( 'NONE', *, *, #134, .F. ) ;
#72 = ADVANCED_FACE ( 'NONE', ( #196, #56 ), #156, .F. ) ;
#73 = DIRECTION ( 'NONE',  ( 1.000000000000000000, 0.0000000000000000000, 0.0000000000000000000 ) ) ;
#74 = DIRECTION ( 'NONE',  ( 3.491481338843133355E-15, -4.327174794786742882E-16, 1.000000000000000000 ) ) ;
#75 = DIRECTION ( 'NONE',  ( 0.0000000000000000000, 1.000000000000000000, 0.0000000000000000000 ) ) ;
#76 = EDGE_LOOP ( 'NONE', ( #236 ) ) ;
#77 = APPROVAL_PERSON_ORGANIZATION ( #169, #162, #69 ) ;
#78 = DIRECTION ( 'NONE',  ( 1.510825004591027855E-30, 1.000000000000000000, 4.327174794786742882E-16 ) ) ;
#79 = DIRECTION ( 'NONE',  ( -3.491481338843133355E-15, 1.224646799147353207E-16, -1.000000000000000000 ) ) ;
#80 = VERTEX_POINT ( 'NONE', #164 ) ;
#81 = CARTESIAN_POINT ( 'NONE',  ( 1.543234751768665069E-13, -3.400000000000026557, 44.20000000000000284 ) ) ;
#82 = ADVANCED_FACE ( 'NONE', ( #94 ), #223, .T. ) ;
#83 = VERTEX_POINT ( 'NONE', #261 ) ;
#84 = CARTESIAN_POINT ( 'NONE',  ( 1.826295417296640013E-13, -4.000000000000021316, 52.30717967697241733 ) ) ;
#85 = EDGE_CURVE ( 'NONE', #83, #83, #145, .T. ) ;
#86 = APPROVAL_STATUS ( 'not_yet_approved' ) ;
#87 = AXIS2_PLACEMENT_3D ( 'NONE', #192, #52, #73 ) ;
#88 = DATE_AND_TIME ( #174, #68 ) ;
#89 = APPLICATION_PROTOCOL_DEFINITION ( 'international standard', 'config_control_design', 1994, #13 ) ;
#90 = COORDINATED_UNIVERSAL_TIME_OFFSET ( 1, 0, .AHEAD. ) ;
#91 = EDGE_LOOP ( 'NONE', ( #71 ) ) ;
#92 = CC_DESIGN_DATE_AND_TIME_ASSIGNMENT ( #29, #133, ( #243 ) ) ;
#93 = APPLICATION_CONTEXT ( 'configuration controlled 3d designs of mechanical parts and assemblies' ) ;
#94 = FACE_OUTER_BOUND ( 'NONE', #76, .T. ) ;
#95 = AXIS2_PLACEMENT_3D ( 'NONE', #176, #74, #258 ) ;
#96 = ORIENTED_EDGE ( 'NONE', *, *, #235, .T. ) ;
#97 = DIRECTION ( 'NONE',  ( 3.491481338843133355E-15, -1.224646799147353207E-16, 1.000000000000000000 ) ) ;
#98 = LOCAL_TIME ( 14, 57, 13.00000000000000000, #173 ) ;
#99 = ORIENTED_EDGE ( 'NONE', *, *, #177, .F. ) ;
#100 = DIRECTION ( 'NONE',  ( -4.531599869146427770E-31, -1.000000000000000000, -1.275531967630002534E-16 ) ) ;
#101 = APPROVAL ( #86, 'UNSPECIFIED' ) ;
#102 = CARTESIAN_POINT ( 'NONE',  ( 1.543234751768665069E-13, 2.999519565323704268E-32, 44.20000000000000284 ) ) ;
#103 = CIRCLE ( 'NONE', #112, 3.400000000000007461 ) ;
#104 = DIRECTION ( 'NONE',  ( 0.0000000000000000000, 1.000000000000000000, 0.0000000000000000000 ) ) ;
#105 = VERTEX_POINT ( 'NONE', #49 ) ;
#106 = AXIS2_PLACEMENT_3D ( 'NONE', #199, #221, #183 ) ;
#107 = SECURITY_CLASSIFICATION_LEVEL ( 'unclassified' ) ;
#108 = PERSON_AND_ORGANIZATION_ROLE ( 'design_supplier' ) ;
#109 = APPROVAL_STATUS ( 'not_yet_approved' ) ;
#110 = APPLICATION_PROTOCOL_DEFINITION ( 'international standard', 'config_control_design', 1994, #93 ) ;
#111 = ORIENTED_EDGE ( 'NONE', *, *, #85, .F. ) ;
#112 = AXIS2_PLACEMENT_3D ( 'NONE', #222, #146, #224 ) ;
#113 = APPROVAL_ROLE ( '' ) ;
#114 = ORIENTED_EDGE ( 'NONE', *, *, #85, .T. ) ;
#115 = DIRECTION ( 'NONE',  ( 0.0000000000000000000, 1.000000000000000000, 0.0000000000000000000 ) ) ;
#116 = CC_DESIGN_PERSON_AND_ORGANIZATION_ASSIGNMENT ( #8, #193, ( #4 ) ) ;
#117 = CARTESIAN_POINT ( 'NONE',  ( 1.543234751768665069E-13, 2.999519565323704268E-32, 44.20000000000000284 ) ) ;
#118 = MANIFOLD_SOLID_BREP ( 'Corps-Déplacer/Copier1[1]', #34 ) ;
#119 = FACE_OUTER_BOUND ( 'NONE', #178, .T. ) ;
#120 = CYLINDRICAL_SURFACE ( 'NONE', #67, 3.999999999999998224 ) ;
#121 = AXIS2_PLACEMENT_3D ( 'NONE', #239, #202, #115 ) ;
#122 = CIRCLE ( 'NONE', #15, 3.400000000000007461 ) ;
#123 =( NAMED_UNIT ( * ) SI_UNIT ( $, .STERADIAN. ) SOLID_ANGLE_UNIT ( ) );
#124 = DIRECTION ( 'NONE',  ( -3.491481338843133355E-15, 1.224646799147353207E-16, -1.000000000000000000 ) ) ;
#125 = AXIS2_PLACEMENT_3D ( 'NONE', #198, #16, #75 ) ;
#126 = VERTEX_POINT ( 'NONE', #81 ) ;
#127 = CC_DESIGN_PERSON_AND_ORGANIZATION_ASSIGNMENT ( #213, #6, ( #234 ) ) ;
#128 = CARTESIAN_POINT ( 'NONE',  ( 1.798112889504213489E-13, -2.228495019315172426E-14, 51.50000000000000000 ) ) ;
#129 = MECHANICAL_CONTEXT ( 'NONE', #13, 'mechanical' ) ;
#130 = AXIS2_PLACEMENT_3D ( 'NONE', #117, #97, #225 ) ;
#131 = AXIS2_PLACEMENT_3D ( 'NONE', #262, #22, #100 ) ;
#132 = CALENDAR_DATE ( 2021, 13, 10 ) ;
#133 = DATE_TIME_ROLE ( 'creation_date' ) ;
#134 = EDGE_CURVE ( 'NONE', #188, #188, #62, .T. ) ;
#135 = LOCAL_TIME ( 14, 57, 13.00000000000000000, #254 ) ;
#136 = DIRECTION ( 'NONE',  ( 0.0000000000000000000, 1.000000000000000000, 0.0000000000000000000 ) ) ;
#137 = FACE_BOUND ( 'NONE', #141, .T. ) ;
#138 = EDGE_LOOP ( 'NONE', ( #41 ) ) ;
#139 = AXIS2_PLACEMENT_3D ( 'NONE', #247, #61, #167 ) ;
#140 = CARTESIAN_POINT ( 'NONE',  ( 0.0000000000000000000, 0.0000000000000000000, 0.0000000000000000000 ) ) ;
#141 = EDGE_LOOP ( 'NONE', ( #11 ) ) ;
#142 = PRODUCT_DEFINITION_SHAPE ( 'NONE', 'NONE',  #243 ) ;
#143 = DIRECTION ( 'NONE',  ( -3.491481338843133355E-15, 4.327174794786742882E-16, -1.000000000000000000 ) ) ;
#144 = ADVANCED_FACE ( 'NONE', ( #57, #137 ), #39, .T. ) ;
#145 = CIRCLE ( 'NONE', #30, 4.000000000000001776 ) ;
#146 = DIRECTION ( 'NONE',  ( -3.491481338843133355E-15, 1.224646799147353207E-16, -1.000000000000000000 ) ) ;
#147 = DIRECTION ( 'NONE',  ( 3.491481338843133355E-15, -4.327174794786742882E-16, 1.000000000000000000 ) ) ;
#148 = CARTESIAN_POINT ( 'NONE',  ( 1.543234751768665069E-13, -3.400000000000026557, 44.20000000000000284 ) ) ;
#149 = APPROVAL_ROLE ( '' ) ;
#150 = PRODUCT_RELATED_PRODUCT_CATEGORY ( 'detail', '', ( #175 ) ) ;
#151 = CC_DESIGN_SECURITY_CLASSIFICATION ( #4, ( #234 ) ) ;
#152 = PERSON_AND_ORGANIZATION ( #171, #21 ) ;
#153 = EDGE_LOOP ( 'NONE', ( #240 ) ) ;
#154 = ADVANCED_FACE ( 'NONE', ( #158 ), #238, .T. ) ;
#155 = APPROVAL_DATE_TIME ( #249, #162 ) ;
#156 = TOROIDAL_SURFACE ( 'NONE', #189, 4.400000000000015454, 1.000000000000001332 ) ;
#157 = ORIENTED_EDGE ( 'NONE', *, *, #251, .T. ) ;
#158 = FACE_OUTER_BOUND ( 'NONE', #138, .T. ) ;
#159 = CARTESIAN_POINT ( 'NONE',  ( 0.0000000000000000000, 0.0000000000000000000, 0.0000000000000000000 ) ) ;
#160 = AXIS2_PLACEMENT_3D ( 'NONE', #48, #147, #205 ) ;
#161 = FACE_OUTER_BOUND ( 'NONE', #38, .T. ) ;
#162 = APPROVAL ( #10, 'UNSPECIFIED' ) ;
#163 = FACE_OUTER_BOUND ( 'NONE', #217, .T. ) ;
#164 = CARTESIAN_POINT ( 'NONE',  ( 1.798112889504213489E-13, 3.533974596215553987, 51.50000000000000000 ) ) ;
#165 = CARTESIAN_POINT ( 'NONE',  ( 3.561310965619995770E-13, 2.399615652258955477E-32, 102.0000000000000000 ) ) ;
#166 = CC_DESIGN_PERSON_AND_ORGANIZATION_ASSIGNMENT ( #33, #108, ( #234 ) ) ;
#167 = DIRECTION ( 'NONE',  ( 0.0000000000000000000, 1.000000000000000000, 0.0000000000000000000 ) ) ;
#168 =( LENGTH_UNIT ( ) NAMED_UNIT ( * ) SI_UNIT ( .MILLI., .METRE. ) );
#169 = PERSON_AND_ORGANIZATION ( #171, #21 ) ;
#170 = APPROVAL_DATE_TIME ( #88, #101 ) ;
#171 = PERSON ( 'UNSPECIFIED', 'UNSPECIFIED', 'UNSPECIFIED', ('UNSPECIFIED'), ('UNSPECIFIED'), ('UNSPECIFIED') ) ;
#172 = APPROVAL_DATE_TIME ( #210, #197 ) ;
#173 = COORDINATED_UNIVERSAL_TIME_OFFSET ( 1, 0, .AHEAD. ) ;
#174 = CALENDAR_DATE ( 2021, 13, 10 ) ;
#175 = PRODUCT ( '960181', '960181', '', ( #129 ) ) ;
#176 = CARTESIAN_POINT ( 'NONE',  ( 1.826295417296640013E-13, -2.263423094845764205E-14, 52.30717967697241733 ) ) ;
#177 = EDGE_CURVE ( 'NONE', #80, #80, #226, .T. ) ;
#178 = EDGE_LOOP ( 'NONE', ( #232 ) ) ;
#179 = EDGE_LOOP ( 'NONE', ( #43 ) ) ;
#180 = DIRECTION ( 'NONE',  ( 1.510825004591027855E-30, 1.000000000000000000, 4.327174794786743375E-16 ) ) ;
#181 = APPROVAL_PERSON_ORGANIZATION ( #215, #197, #113 ) ;
#182 = ADVANCED_FACE ( 'NONE', ( #163 ), #227, .F. ) ;
#183 = DIRECTION ( 'NONE',  ( -3.851859888774481340E-31, -1.000000000000000000, -1.084202172485507146E-16 ) ) ;
#184 = FACE_OUTER_BOUND ( 'NONE', #18, .T. ) ;
#185 = VERTEX_POINT ( 'NONE', #207 ) ;
#186 = ADVANCED_FACE ( 'NONE', ( #244, #23 ), #187, .T. ) ;
#187 = CYLINDRICAL_SURFACE ( 'NONE', #253, 3.400000000000007461 ) ;
#188 = VERTEX_POINT ( 'NONE', #84 ) ;
#189 = AXIS2_PLACEMENT_3D ( 'NONE', #20, #219, #78 ) ;
#190 = DATE_AND_TIME ( #132, #135 ) ;
#191 = COORDINATED_UNIVERSAL_TIME_OFFSET ( 1, 0, .AHEAD. ) ;
#192 = CARTESIAN_POINT ( 'NONE',  ( 0.0000000000000000000, 0.0000000000000000000, 0.0000000000000000000 ) ) ;
#193 = PERSON_AND_ORGANIZATION_ROLE ( 'classification_officer' ) ;
#194 = CIRCLE ( 'NONE', #139, 3.400000000000015454 ) ;
#195 = PERSON_AND_ORGANIZATION_ROLE ( 'creator' ) ;
#196 = FACE_OUTER_BOUND ( 'NONE', #153, .T. ) ;
#197 = APPROVAL ( #109, 'UNSPECIFIED' ) ;
#198 = CARTESIAN_POINT ( 'NONE',  ( 3.561310965619995770E-13, -1.249139735130300089E-14, 102.0000000000000000 ) ) ;
#199 = CARTESIAN_POINT ( 'NONE',  ( 5.083181123339289718E-15, -1.782939929516086737E-16, 1.455880937064824687 ) ) ;
#200 = FACE_OUTER_BOUND ( 'NONE', #14, .T. ) ;
#201 = EDGE_CURVE ( 'NONE', #242, #242, #103, .T. ) ;
#202 = DIRECTION ( 'NONE',  ( -3.491481338843133355E-15, 1.224646799147353207E-16, -1.000000000000000000 ) ) ;
#203 = DIRECTION ( 'NONE',  ( -3.491481338843133355E-15, 1.224646799147353207E-16, -1.000000000000000000 ) ) ;
#204 = ADVANCED_BREP_SHAPE_REPRESENTATION ( '960181', ( #118, #36, #87 ), #50 ) ;
#205 = DIRECTION ( 'NONE',  ( 0.0000000000000000000, -1.000000000000000000, 0.0000000000000000000 ) ) ;
#206 = CC_DESIGN_APPROVAL ( #197, ( #243 ) ) ;
#207 = CARTESIAN_POINT ( 'NONE',  ( 3.561310965619995770E-13, 3.199999999999989964, 102.0000000000000000 ) ) ;
#208 = CARTESIAN_POINT ( 'NONE',  ( 1.543234751768665069E-13, -1.912611259295740543E-14, 44.20000000000000284 ) ) ;
#209 = CC_DESIGN_PERSON_AND_ORGANIZATION_ASSIGNMENT ( #35, #195, ( #243 ) ) ;
#210 = DATE_AND_TIME ( #31, #98 ) ;
#211 = LOCAL_TIME ( 14, 57, 13.00000000000000000, #191 ) ;
#212 = PERSON_AND_ORGANIZATION_ROLE ( 'design_owner' ) ;
#213 = PERSON_AND_ORGANIZATION ( #171, #21 ) ;
#214 = CIRCLE ( 'NONE', #121, 3.200000000000002842 ) ;
#215 = PERSON_AND_ORGANIZATION ( #171, #21 ) ;
#216 = AXIS2_PLACEMENT_3D ( 'NONE', #102, #24, #1 ) ;
#217 = EDGE_LOOP ( 'NONE', ( #256 ) ) ;
#218 = EDGE_LOOP ( 'NONE', ( #37 ) ) ;
#219 = DIRECTION ( 'NONE',  ( -3.491481338843133355E-15, 4.327174794786742882E-16, -1.000000000000000000 ) ) ;
#220 = DIRECTION ( 'NONE',  ( -3.491481338843133355E-15, 1.224646799147353207E-16, -1.000000000000000000 ) ) ;
#221 = DIRECTION ( 'NONE',  ( 3.491481338843133355E-15, -1.224646799147353207E-16, 1.000000000000000000 ) ) ;
#222 = CARTESIAN_POINT ( 'NONE',  ( 1.543234751768665069E-13, -1.912611259295740543E-14, 44.20000000000000284 ) ) ;
#223 = CONICAL_SURFACE ( 'NONE', #106, 3.999999999999989786, 1.221730476396026610 ) ;
#224 = DIRECTION ( 'NONE',  ( 0.0000000000000000000, -1.000000000000000000, 0.0000000000000000000 ) ) ;
#225 = DIRECTION ( 'NONE',  ( -4.275831445896958607E-31, -1.000000000000000000, -1.224646799147353207E-16 ) ) ;
#226 = CIRCLE ( 'NONE', #63, 3.533974596215576192 ) ;
#227 = PLANE ( 'NONE',  #59 ) ;
#228 = EDGE_CURVE ( 'NONE', #105, #105, #5, .T. ) ;
#229 = PERSON_AND_ORGANIZATION ( #171, #21 ) ;
#230 = ADVANCED_FACE ( 'NONE', ( #241, #64 ), #55, .T. ) ;
#231 = CALENDAR_DATE ( 2021, 13, 10 ) ;
#232 = ORIENTED_EDGE ( 'NONE', *, *, #201, .T. ) ;
#233 = ORIENTED_EDGE ( 'NONE', *, *, #134, .T. ) ;
#234 = PRODUCT_DEFINITION_FORMATION_WITH_SPECIFIED_SOURCE ( 'ANY', '', #175, .NOT_KNOWN. ) ;
#235 = EDGE_CURVE ( 'NONE', #126, #126, #122, .T. ) ;
#236 = ORIENTED_EDGE ( 'NONE', *, *, #228, .T. ) ;
#237 = DIRECTION ( 'NONE',  ( 4.275831445896958607E-31, 1.000000000000000000, 1.224646799147353207E-16 ) ) ;
#238 = PLANE ( 'NONE',  #130 ) ;
#239 = CARTESIAN_POINT ( 'NONE',  ( 3.561310965619995770E-13, -1.249139735130300089E-14, 102.0000000000000000 ) ) ;
#240 = ORIENTED_EDGE ( 'NONE', *, *, #251, .F. ) ;
#241 = FACE_BOUND ( 'NONE', #60, .T. ) ;
#242 = VERTEX_POINT ( 'NONE', #148 ) ;
#243 = PRODUCT_DEFINITION ( 'UNKNOWN', '', #234, #65 ) ;
#244 = FACE_OUTER_BOUND ( 'NONE', #58, .T. ) ;
#245 = PLANE ( 'NONE',  #216 ) ;
#246 = ADVANCED_FACE ( 'NONE', ( #184 ), #245, .F. ) ;
#247 = CARTESIAN_POINT ( 'NONE',  ( 1.780655482809997885E-13, -2.206859145341238554E-14, 51.00000000000000000 ) ) ;
#248 = LOCAL_TIME ( 14, 57, 13.00000000000000000, #53 ) ;
#249 = DATE_AND_TIME ( #250, #248 ) ;
#250 = CALENDAR_DATE ( 2021, 13, 10 ) ;
#251 = EDGE_CURVE ( 'NONE', #28, #28, #194, .T. ) ;
#252 = CLOSED_SHELL ( 'NONE', ( #82, #40, #154 ) ) ;
#253 = AXIS2_PLACEMENT_3D ( 'NONE', #46, #143, #2 ) ;
#254 = COORDINATED_UNIVERSAL_TIME_OFFSET ( 1, 0, .AHEAD. ) ;
#255 = CC_DESIGN_PERSON_AND_ORGANIZATION_ASSIGNMENT ( #229, #212, ( #175 ) ) ;
#256 = ORIENTED_EDGE ( 'NONE', *, *, #44, .F. ) ;
#257 = CYLINDRICAL_SURFACE ( 'NONE', #45, 3.400000000000007461 ) ;
#258 = DIRECTION ( 'NONE',  ( 0.0000000000000000000, -1.000000000000000000, 0.0000000000000000000 ) ) ;
#259 = CC_DESIGN_APPROVAL ( #162, ( #234 ) ) ;
#260 = CARTESIAN_POINT ( 'NONE',  ( 3.533379114909250198E-13, -1.239342560737121245E-14, 101.1999999999999886 ) ) ;
#261 = CARTESIAN_POINT ( 'NONE',  ( 3.533379114909250198E-13, 3.999999999999989786, 101.1999999999999886 ) ) ;
#262 = CARTESIAN_POINT ( 'NONE',  ( 4.320703954838417086E-15, -1.515498940088681196E-16, 1.237498796505106968 ) ) ;
#263 = APPROVAL_PERSON_ORGANIZATION ( #152, #101, #149 ) ;
ENDSEC;
END-ISO-10303-21;
