ISO-10303-21;
HEADER;
FILE_DESCRIPTION (( 'STEP AP203' ),
    '1' );
FILE_NAME ('960180.step',
    '2021-10-13T12:57:12',
    ( '' ),
    ( '' ),
    'SwSTEP 2.0',
    'SolidWorks 2019',
    '' );
FILE_SCHEMA (( 'CONFIG_CONTROL_DESIGN' ));
ENDSEC;

DATA;
#1 = PLANE ( 'NONE',  #119 ) ;
#2 = FACE_OUTER_BOUND ( 'NONE', #74, .T. ) ;
#3 = CC_DESIGN_APPROVAL ( #226, ( #227 ) ) ;
#4 = COORDINATED_UNIVERSAL_TIME_OFFSET ( 1, 0, .AHEAD. ) ;
#5 = COORDINATED_UNIVERSAL_TIME_OFFSET ( 1, 0, .AHEAD. ) ;
#6 = VERTEX_POINT ( 'NONE', #65 ) ;
#7 = CIRCLE ( 'NONE', #76, 3.300000000000015365 ) ;
#8 = CALENDAR_DATE ( 2021, 13, 10 ) ;
#9 = DATE_AND_TIME ( #111, #228 ) ;
#10 = CIRCLE ( 'NONE', #156, 3.999999999999998224 ) ;
#11 = CIRCLE ( 'NONE', #166, 4.000000000000001776 ) ;
#12 = CC_DESIGN_PERSON_AND_ORGANIZATION_ASSIGNMENT ( #75, #195, ( #259 ) ) ;
#13 = APPROVAL_DATE_TIME ( #57, #226 ) ;
#14 = FACE_OUTER_BOUND ( 'NONE', #235, .T. ) ;
#15 = APPLICATION_CONTEXT ( 'configuration controlled 3d designs of mechanical parts and assemblies' ) ;
#16 = CIRCLE ( 'NONE', #213, 3.200000000000002842 ) ;
#17 = CIRCLE ( 'NONE', #92, 3.433974596215577879 ) ;
#18 = CYLINDRICAL_SURFACE ( 'NONE', #41, 3.300000000000007816 ) ;
#19 = DIRECTION ( 'NONE',  ( 1.510825004591027679E-30, 1.000000000000000000, 4.327174794786742882E-16 ) ) ;
#20 = DIRECTION ( 'NONE',  ( -3.491481338843133355E-15, 1.224646799147353207E-16, -1.000000000000000000 ) ) ;
#21 = EDGE_CURVE ( 'NONE', #201, #201, #10, .T. ) ;
#22 = DIRECTION ( 'NONE',  ( -4.668921077302379012E-31, -1.000000000000000000, -1.314184451497578054E-16 ) ) ;
#23 = VERTEX_POINT ( 'NONE', #162 ) ;
#24 = APPROVAL_PERSON_ORGANIZATION ( #207, #32, #27 ) ;
#25 = PERSON_AND_ORGANIZATION ( #103, #202 ) ;
#26 = VERTEX_POINT ( 'NONE', #246 ) ;
#27 = APPROVAL_ROLE ( '' ) ;
#28 = CIRCLE ( 'NONE', #126, 3.300000000000007816 ) ;
#29 = APPROVAL_STATUS ( 'not_yet_approved' ) ;
#30 = CIRCLE ( 'NONE', #132, 3.300000000000007816 ) ;
#31 = ORIENTED_EDGE ( 'NONE', *, *, #241, .F. ) ;
#32 = APPROVAL ( #29, 'UNSPECIFIED' ) ;
#33 = EDGE_LOOP ( 'NONE', ( #229 ) ) ;
#34 = PERSON_AND_ORGANIZATION ( #103, #202 ) ;
#35 = CIRCLE ( 'NONE', #152, 3.300000000000007816 ) ;
#36 = EDGE_LOOP ( 'NONE', ( #90 ) ) ;
#37 = ORIENTED_EDGE ( 'NONE', *, *, #234, .T. ) ;
#38 = ADVANCED_FACE ( 'NONE', ( #191, #14 ), #258, .T. ) ;
#39 = ORIENTED_EDGE ( 'NONE', *, *, #112, .T. ) ;
#40 = CARTESIAN_POINT ( 'NONE',  ( 1.728283262727351074E-13, -2.141951523419437884E-14, 49.50000000000000000 ) ) ;
#41 = AXIS2_PLACEMENT_3D ( 'NONE', #224, #157, #19 ) ;
#42 = CARTESIAN_POINT ( 'NONE',  ( 0.0000000000000000000, 0.0000000000000000000, 0.0000000000000000000 ) ) ;
#43 = CARTESIAN_POINT ( 'NONE',  ( 1.810207735649323758E-13, -2.243484792510777346E-14, 51.84641016151378068 ) ) ;
#44 = PERSON_AND_ORGANIZATION_ROLE ( 'design_owner' ) ;
#45 = DATE_AND_TIME ( #165, #244 ) ;
#46 = CC_DESIGN_SECURITY_CLASSIFICATION ( #227, ( #259 ) ) ;
#47 = CARTESIAN_POINT ( 'NONE',  ( 1.497845494363704399E-13, -3.300000000000026468, 42.89999999999999858 ) ) ;
#48 = MANIFOLD_SOLID_BREP ( 'Corps-Déplacer/Copier1[2]', #71 ) ;
#49 =( NAMED_UNIT ( * ) PLANE_ANGLE_UNIT ( ) SI_UNIT ( $, .RADIAN. ) );
#50 = MANIFOLD_SOLID_BREP ( 'Corps-Déplacer/Copier1[1]', #222 ) ;
#51 = EDGE_LOOP ( 'NONE', ( #39 ) ) ;
#52 = CC_DESIGN_PERSON_AND_ORGANIZATION_ASSIGNMENT ( #34, #73, ( #227 ) ) ;
#53 = DATE_TIME_ROLE ( 'classification_date' ) ;
#54 = DIRECTION ( 'NONE',  ( -3.491481338843133355E-15, 1.224646799147353207E-16, -1.000000000000000000 ) ) ;
#55 = ORIENTED_EDGE ( 'NONE', *, *, #200, .T. ) ;
#56 =( GEOMETRIC_REPRESENTATION_CONTEXT ( 3 ) GLOBAL_UNCERTAINTY_ASSIGNED_CONTEXT ( ( #223 ) ) GLOBAL_UNIT_ASSIGNED_CONTEXT ( ( #124, #49, #147 ) ) REPRESENTATION_CONTEXT ( 'NONE', 'WORKASPACE' ) );
#57 = DATE_AND_TIME ( #8, #102 ) ;
#58 = EDGE_LOOP ( 'NONE', ( #212 ) ) ;
#59 = DIRECTION ( 'NONE',  ( 4.275831445896958607E-31, 1.000000000000000000, 1.224646799147353207E-16 ) ) ;
#60 = DIRECTION ( 'NONE',  ( -3.491481338843133355E-15, 1.224646799147353207E-16, -1.000000000000000000 ) ) ;
#61 = PRODUCT_DEFINITION ( 'UNKNOWN', '', #259, #120 ) ;
#62 = FACE_OUTER_BOUND ( 'NONE', #175, .T. ) ;
#63 = CYLINDRICAL_SURFACE ( 'NONE', #68, 3.999999999999998224 ) ;
#64 = CARTESIAN_POINT ( 'NONE',  ( 1.497845494363704399E-13, -1.856357986963512602E-14, 42.89999999999999858 ) ) ;
#65 = CARTESIAN_POINT ( 'NONE',  ( 1.728283262727351074E-13, 3.299999999999994049, 49.50000000000000000 ) ) ;
#66 = DIRECTION ( 'NONE',  ( 0.0000000000000000000, 0.0000000000000000000, 1.000000000000000000 ) ) ;
#67 = DATE_AND_TIME ( #87, #86 ) ;
#68 = AXIS2_PLACEMENT_3D ( 'NONE', #42, #96, #138 ) ;
#69 = DIRECTION ( 'NONE',  ( 1.000000000000000000, 0.0000000000000000000, 0.0000000000000000000 ) ) ;
#70 = VERTEX_POINT ( 'NONE', #245 ) ;
#71 = CLOSED_SHELL ( 'NONE', ( #247, #38, #80 ) ) ;
#72 = DIRECTION ( 'NONE',  ( 3.491481338843133355E-15, -1.224646799147353207E-16, 1.000000000000000000 ) ) ;
#73 = PERSON_AND_ORGANIZATION_ROLE ( 'classification_officer' ) ;
#74 = EDGE_LOOP ( 'NONE', ( #37 ) ) ;
#75 = PERSON_AND_ORGANIZATION ( #103, #202 ) ;
#76 = AXIS2_PLACEMENT_3D ( 'NONE', #40, #179, #100 ) ;
#77 = DIRECTION ( 'NONE',  ( -3.491481338843133355E-15, 4.327174794786742882E-16, -1.000000000000000000 ) ) ;
#78 = FACE_OUTER_BOUND ( 'NONE', #129, .T. ) ;
#79 = FACE_OUTER_BOUND ( 'NONE', #171, .T. ) ;
#80 = ADVANCED_FACE ( 'NONE', ( #78 ), #169, .T. ) ;
#81 = FACE_BOUND ( 'NONE', #51, .T. ) ;
#82 = DIRECTION ( 'NONE',  ( 0.0000000000000000000, 1.000000000000000000, 0.0000000000000000000 ) ) ;
#83 = DIRECTION ( 'NONE',  ( 0.0000000000000000000, -1.000000000000000000, 0.0000000000000000000 ) ) ;
#84 = CARTESIAN_POINT ( 'NONE',  ( 3.533379114909250198E-13, 3.999999999999989786, 101.1999999999999886 ) ) ;
#85 = APPROVAL_PERSON_ORGANIZATION ( #148, #226, #130 ) ;
#86 = LOCAL_TIME ( 14, 57, 12.00000000000000000, #5 ) ;
#87 = CALENDAR_DATE ( 2021, 13, 10 ) ;
#88 = APPLICATION_PROTOCOL_DEFINITION ( 'international standard', 'config_control_design', 1994, #158 ) ;
#89 = ORIENTED_EDGE ( 'NONE', *, *, #139, .F. ) ;
#90 = ORIENTED_EDGE ( 'NONE', *, *, #105, .T. ) ;
#91 = ORIENTED_EDGE ( 'NONE', *, *, #234, .F. ) ;
#92 = AXIS2_PLACEMENT_3D ( 'NONE', #263, #121, #82 ) ;
#93 = ORIENTED_EDGE ( 'NONE', *, *, #21, .T. ) ;
#94 = CARTESIAN_POINT ( 'NONE',  ( 1.728283262727351074E-13, -2.168404344971008868E-14, 49.50000000000000000 ) ) ;
#95 = CC_DESIGN_PERSON_AND_ORGANIZATION_ASSIGNMENT ( #211, #168, ( #259 ) ) ;
#96 = DIRECTION ( 'NONE',  ( -3.491481338843133355E-15, 1.224646799147353207E-16, -1.000000000000000000 ) ) ;
#97 = DIRECTION ( 'NONE',  ( -3.491481338843133355E-15, 1.224646799147353207E-16, -1.000000000000000000 ) ) ;
#98 = AXIS2_PLACEMENT_3D ( 'NONE', #43, #261, #118 ) ;
#99 = FACE_OUTER_BOUND ( 'NONE', #113, .T. ) ;
#100 = DIRECTION ( 'NONE',  ( 0.0000000000000000000, 1.000000000000000000, 0.0000000000000000000 ) ) ;
#101 = PERSON_AND_ORGANIZATION ( #103, #202 ) ;
#102 = LOCAL_TIME ( 14, 57, 12.00000000000000000, #232 ) ;
#103 = PERSON ( 'UNSPECIFIED', 'UNSPECIFIED', 'UNSPECIFIED', ('UNSPECIFIED'), ('UNSPECIFIED'), ('UNSPECIFIED') ) ;
#104 = COORDINATED_UNIVERSAL_TIME_OFFSET ( 1, 0, .AHEAD. ) ;
#105 = EDGE_CURVE ( 'NONE', #250, #250, #28, .T. ) ;
#106 = DATE_AND_TIME ( #190, #107 ) ;
#107 = LOCAL_TIME ( 14, 57, 12.00000000000000000, #104 ) ;
#108 = CC_DESIGN_PERSON_AND_ORGANIZATION_ASSIGNMENT ( #101, #186, ( #61 ) ) ;
#109 = VERTEX_POINT ( 'NONE', #188 ) ;
#110 = EDGE_LOOP ( 'NONE', ( #93 ) ) ;
#111 = CALENDAR_DATE ( 2021, 13, 10 ) ;
#112 = EDGE_CURVE ( 'NONE', #23, #23, #16, .T. ) ;
#113 = EDGE_LOOP ( 'NONE', ( #256 ) ) ;
#114 = CC_DESIGN_APPROVAL ( #32, ( #61 ) ) ;
#115 = PLANE ( 'NONE',  #189 ) ;
#116 = DIRECTION ( 'NONE',  ( 0.0000000000000000000, -1.000000000000000000, 0.0000000000000000000 ) ) ;
#117 = FACE_BOUND ( 'NONE', #33, .T. ) ;
#118 = DIRECTION ( 'NONE',  ( 0.0000000000000000000, -1.000000000000000000, 0.0000000000000000000 ) ) ;
#119 = AXIS2_PLACEMENT_3D ( 'NONE', #135, #20, #59 ) ;
#120 = DESIGN_CONTEXT ( 'detailed design', #15, 'design' ) ;
#121 = DIRECTION ( 'NONE',  ( -3.491481338843133355E-15, 4.327174794786742882E-16, -1.000000000000000000 ) ) ;
#122 = CC_DESIGN_DATE_AND_TIME_ASSIGNMENT ( #9, #53, ( #227 ) ) ;
#123 = DATE_TIME_ROLE ( 'creation_date' ) ;
#124 =( LENGTH_UNIT ( ) NAMED_UNIT ( * ) SI_UNIT ( .MILLI., .METRE. ) );
#125 = PERSON_AND_ORGANIZATION ( #103, #202 ) ;
#126 = AXIS2_PLACEMENT_3D ( 'NONE', #231, #54, #116 ) ;
#127 = AXIS2_PLACEMENT_3D ( 'NONE', #144, #66, #69 ) ;
#128 = EDGE_LOOP ( 'NONE', ( #31 ) ) ;
#129 = EDGE_LOOP ( 'NONE', ( #89 ) ) ;
#130 = APPROVAL_ROLE ( '' ) ;
#131 = EDGE_LOOP ( 'NONE', ( #237 ) ) ;
#132 = AXIS2_PLACEMENT_3D ( 'NONE', #161, #203, #22 ) ;
#133 = DIRECTION ( 'NONE',  ( 3.491481338843133355E-15, -4.327174794786742882E-16, 1.000000000000000000 ) ) ;
#134 = CC_DESIGN_DATE_AND_TIME_ASSIGNMENT ( #45, #123, ( #61 ) ) ;
#135 = CARTESIAN_POINT ( 'NONE',  ( 3.561310965619995770E-13, 2.399615652258955477E-32, 102.0000000000000000 ) ) ;
#136 = FACE_OUTER_BOUND ( 'NONE', #131, .T. ) ;
#137 = DIRECTION ( 'NONE',  ( 0.0000000000000000000, 1.000000000000000000, 0.0000000000000000000 ) ) ;
#138 = DIRECTION ( 'NONE',  ( 4.275831445896958607E-31, 1.000000000000000000, 1.224646799147353207E-16 ) ) ;
#139 = EDGE_CURVE ( 'NONE', #70, #70, #35, .T. ) ;
#140 = DIRECTION ( 'NONE',  ( -3.851859888774481340E-31, -1.000000000000000000, -1.084202172485507146E-16 ) ) ;
#141 = AXIS2_PLACEMENT_3D ( 'NONE', #183, #198, #140 ) ;
#142 = VERTEX_POINT ( 'NONE', #84 ) ;
#143 = MECHANICAL_CONTEXT ( 'NONE', #158, 'mechanical' ) ;
#144 = CARTESIAN_POINT ( 'NONE',  ( 0.0000000000000000000, 0.0000000000000000000, 0.0000000000000000000 ) ) ;
#145 = APPLICATION_PROTOCOL_DEFINITION ( 'international standard', 'config_control_design', 1994, #15 ) ;
#146 = ADVANCED_BREP_SHAPE_REPRESENTATION ( '960180', ( #50, #48, #127 ), #56 ) ;
#147 =( NAMED_UNIT ( * ) SI_UNIT ( $, .STERADIAN. ) SOLID_ANGLE_UNIT ( ) );
#148 = PERSON_AND_ORGANIZATION ( #103, #202 ) ;
#149 = DIRECTION ( 'NONE',  ( -4.275831445896958607E-31, -1.000000000000000000, -1.224646799147353207E-16 ) ) ;
#150 = ADVANCED_FACE ( 'NONE', ( #117, #220 ), #209, .T. ) ;
#151 = SECURITY_CLASSIFICATION_LEVEL ( 'unclassified' ) ;
#152 = AXIS2_PLACEMENT_3D ( 'NONE', #64, #60, #83 ) ;
#153 = PRODUCT ( '960180', '960180', '', ( #143 ) ) ;
#154 = FACE_OUTER_BOUND ( 'NONE', #178, .T. ) ;
#155 = FACE_OUTER_BOUND ( 'NONE', #194, .T. ) ;
#156 = AXIS2_PLACEMENT_3D ( 'NONE', #260, #133, #214 ) ;
#157 = DIRECTION ( 'NONE',  ( -3.491481338843133355E-15, 4.327174794786742882E-16, -1.000000000000000000 ) ) ;
#158 = APPLICATION_CONTEXT ( 'configuration controlled 3d designs of mechanical parts and assemblies' ) ;
#159 = CC_DESIGN_PERSON_AND_ORGANIZATION_ASSIGNMENT ( #125, #44, ( #153 ) ) ;
#160 = FACE_OUTER_BOUND ( 'NONE', #36, .T. ) ;
#161 = CARTESIAN_POINT ( 'NONE',  ( 4.193624426754935159E-15, -1.470925441850778917E-16, 1.201101773078486312 ) ) ;
#162 = CARTESIAN_POINT ( 'NONE',  ( 3.561310965619995770E-13, 3.199999999999989964, 102.0000000000000000 ) ) ;
#163 = APPROVAL_PERSON_ORGANIZATION ( #25, #204, #187 ) ;
#164 = EDGE_CURVE ( 'NONE', #109, #109, #17, .T. ) ;
#165 = CALENDAR_DATE ( 2021, 13, 10 ) ;
#166 = AXIS2_PLACEMENT_3D ( 'NONE', #262, #216, #199 ) ;
#167 = ADVANCED_FACE ( 'NONE', ( #242, #154 ), #236, .F. ) ;
#168 = PERSON_AND_ORGANIZATION_ROLE ( 'creator' ) ;
#169 = PLANE ( 'NONE',  #208 ) ;
#170 = ADVANCED_FACE ( 'NONE', ( #160 ), #115, .F. ) ;
#171 = EDGE_LOOP ( 'NONE', ( #192 ) ) ;
#172 = PRODUCT_DEFINITION_SHAPE ( 'NONE', 'NONE',  #61 ) ;
#173 = ORIENTED_EDGE ( 'NONE', *, *, #164, .T. ) ;
#174 = APPROVAL_STATUS ( 'not_yet_approved' ) ;
#175 = EDGE_LOOP ( 'NONE', ( #55 ) ) ;
#176 = AXIS2_PLACEMENT_3D ( 'NONE', #233, #77, #196 ) ;
#177 = AXIS2_PLACEMENT_3D ( 'NONE', #219, #240, #137 ) ;
#178 = EDGE_LOOP ( 'NONE', ( #173 ) ) ;
#179 = DIRECTION ( 'NONE',  ( -3.491481338843133355E-15, 4.327174794786742882E-16, -1.000000000000000000 ) ) ;
#180 = DIRECTION ( 'NONE',  ( 1.510825004591027855E-30, 1.000000000000000000, 4.327174794786742882E-16 ) ) ;
#181 = PRODUCT_RELATED_PRODUCT_CATEGORY ( 'detail', '', ( #153 ) ) ;
#182 = DIRECTION ( 'NONE',  ( 0.0000000000000000000, 1.000000000000000000, 0.0000000000000000000 ) ) ;
#183 = CARTESIAN_POINT ( 'NONE',  ( 5.083181123339289718E-15, -1.782939929516086737E-16, 1.455880937064824687 ) ) ;
#184 = ADVANCED_FACE ( 'NONE', ( #205, #2 ), #63, .T. ) ;
#185 = DIRECTION ( 'NONE',  ( -4.275831445896958607E-31, -1.000000000000000000, -1.224646799147353207E-16 ) ) ;
#186 = PERSON_AND_ORGANIZATION_ROLE ( 'creator' ) ;
#187 = APPROVAL_ROLE ( '' ) ;
#188 = CARTESIAN_POINT ( 'NONE',  ( 1.745740669421566678E-13, 3.433974596215556119, 50.00000000000000000 ) ) ;
#189 = AXIS2_PLACEMENT_3D ( 'NONE', #239, #238, #185 ) ;
#190 = CALENDAR_DATE ( 2021, 13, 10 ) ;
#191 = FACE_OUTER_BOUND ( 'NONE', #210, .T. ) ;
#192 = ORIENTED_EDGE ( 'NONE', *, *, #105, .F. ) ;
#193 = COORDINATED_UNIVERSAL_TIME_OFFSET ( 1, 0, .AHEAD. ) ;
#194 = EDGE_LOOP ( 'NONE', ( #91 ) ) ;
#195 = PERSON_AND_ORGANIZATION_ROLE ( 'design_supplier' ) ;
#196 = DIRECTION ( 'NONE',  ( 1.510825004591027679E-30, 1.000000000000000000, 4.327174794786742882E-16 ) ) ;
#197 = CONICAL_SURFACE ( 'NONE', #177, 3.200000000000002842, 0.7853981633974420618 ) ;
#198 = DIRECTION ( 'NONE',  ( 3.491481338843133355E-15, -1.224646799147353207E-16, 1.000000000000000000 ) ) ;
#199 = DIRECTION ( 'NONE',  ( 0.0000000000000000000, 1.000000000000000000, 0.0000000000000000000 ) ) ;
#200 = EDGE_CURVE ( 'NONE', #26, #26, #30, .T. ) ;
#201 = VERTEX_POINT ( 'NONE', #225 ) ;
#202 = ORGANIZATION ( 'UNSPECIFIED', 'UNSPECIFIED', '' ) ;
#203 = DIRECTION ( 'NONE',  ( -3.491481338843133355E-15, 1.224646799147353207E-16, -1.000000000000000000 ) ) ;
#204 = APPROVAL ( #248, 'UNSPECIFIED' ) ;
#205 = FACE_OUTER_BOUND ( 'NONE', #110, .T. ) ;
#206 = APPROVAL_DATE_TIME ( #106, #32 ) ;
#207 = PERSON_AND_ORGANIZATION ( #103, #202 ) ;
#208 = AXIS2_PLACEMENT_3D ( 'NONE', #253, #72, #149 ) ;
#209 = CONICAL_SURFACE ( 'NONE', #98, 4.500000000000017764, 0.5235987755982980385 ) ;
#210 = EDGE_LOOP ( 'NONE', ( #254 ) ) ;
#211 = PERSON_AND_ORGANIZATION ( #103, #202 ) ;
#212 = ORIENTED_EDGE ( 'NONE', *, *, #21, .F. ) ;
#213 = AXIS2_PLACEMENT_3D ( 'NONE', #221, #97, #182 ) ;
#214 = DIRECTION ( 'NONE',  ( 0.0000000000000000000, -1.000000000000000000, 0.0000000000000000000 ) ) ;
#215 = ORIENTED_EDGE ( 'NONE', *, *, #200, .F. ) ;
#216 = DIRECTION ( 'NONE',  ( -3.491481338843133355E-15, 1.224646799147353207E-16, -1.000000000000000000 ) ) ;
#217 = CONICAL_SURFACE ( 'NONE', #141, 3.999999999999989786, 1.221730476396026610 ) ;
#218 = ADVANCED_FACE ( 'NONE', ( #99 ), #1, .F. ) ;
#219 = CARTESIAN_POINT ( 'NONE',  ( 3.561310965619995770E-13, -1.249139735130300089E-14, 102.0000000000000000 ) ) ;
#220 = FACE_OUTER_BOUND ( 'NONE', #58, .T. ) ;
#221 = CARTESIAN_POINT ( 'NONE',  ( 3.561310965619995770E-13, -1.249139735130300089E-14, 102.0000000000000000 ) ) ;
#222 = CLOSED_SHELL ( 'NONE', ( #184, #255, #218, #251, #150, #167, #170 ) ) ;
#223 = UNCERTAINTY_MEASURE_WITH_UNIT (LENGTH_MEASURE( 1.000000000000000082E-05 ), #124, 'distance_accuracy_value', 'NONE');
#224 = CARTESIAN_POINT ( 'NONE',  ( 0.0000000000000000000, 0.0000000000000000000, 0.0000000000000000000 ) ) ;
#225 = CARTESIAN_POINT ( 'NONE',  ( 1.779970620286548210E-13, -4.000000000000020428, 50.98038475772931122 ) ) ;
#226 = APPROVAL ( #174, 'UNSPECIFIED' ) ;
#227 = SECURITY_CLASSIFICATION ( '', '', #151 ) ;
#228 = LOCAL_TIME ( 14, 57, 12.00000000000000000, #193 ) ;
#229 = ORIENTED_EDGE ( 'NONE', *, *, #164, .F. ) ;
#230 = CC_DESIGN_APPROVAL ( #204, ( #259 ) ) ;
#231 = CARTESIAN_POINT ( 'NONE',  ( 1.497845494363704399E-13, -1.856357986963512602E-14, 42.89999999999999858 ) ) ;
#232 = COORDINATED_UNIVERSAL_TIME_OFFSET ( 1, 0, .AHEAD. ) ;
#233 = CARTESIAN_POINT ( 'NONE',  ( 0.0000000000000000000, 0.0000000000000000000, 0.0000000000000000000 ) ) ;
#234 = EDGE_CURVE ( 'NONE', #142, #142, #11, .T. ) ;
#235 = EDGE_LOOP ( 'NONE', ( #215 ) ) ;
#236 = TOROIDAL_SURFACE ( 'NONE', #249, 4.300000000000015810, 0.9999999999999995559 ) ;
#237 = ORIENTED_EDGE ( 'NONE', *, *, #241, .T. ) ;
#238 = DIRECTION ( 'NONE',  ( 3.491481338843133355E-15, -1.224646799147353207E-16, 1.000000000000000000 ) ) ;
#239 = CARTESIAN_POINT ( 'NONE',  ( 1.497845494363704399E-13, 2.999519565323704268E-32, 42.89999999999999858 ) ) ;
#240 = DIRECTION ( 'NONE',  ( -3.491481338843133355E-15, 1.224646799147353207E-16, -1.000000000000000000 ) ) ;
#241 = EDGE_CURVE ( 'NONE', #6, #6, #7, .T. ) ;
#242 = FACE_OUTER_BOUND ( 'NONE', #128, .T. ) ;
#243 = DIRECTION ( 'NONE',  ( -3.491481338843133355E-15, 4.327174794786742882E-16, -1.000000000000000000 ) ) ;
#244 = LOCAL_TIME ( 14, 57, 12.00000000000000000, #4 ) ;
#245 = CARTESIAN_POINT ( 'NONE',  ( 1.497845494363704399E-13, -3.300000000000026468, 42.89999999999999858 ) ) ;
#246 = CARTESIAN_POINT ( 'NONE',  ( 4.193624426754933581E-15, -3.300000000000007816, 1.201101773078486090 ) ) ;
#247 = ADVANCED_FACE ( 'NONE', ( #62 ), #217, .T. ) ;
#248 = APPROVAL_STATUS ( 'not_yet_approved' ) ;
#249 = AXIS2_PLACEMENT_3D ( 'NONE', #94, #243, #180 ) ;
#250 = VERTEX_POINT ( 'NONE', #47 ) ;
#251 = ADVANCED_FACE ( 'NONE', ( #136, #79 ), #18, .T. ) ;
#252 = SHAPE_DEFINITION_REPRESENTATION ( #172, #146 ) ;
#253 = CARTESIAN_POINT ( 'NONE',  ( 1.497845494363704399E-13, 2.999519565323704268E-32, 42.89999999999999858 ) ) ;
#254 = ORIENTED_EDGE ( 'NONE', *, *, #139, .T. ) ;
#255 = ADVANCED_FACE ( 'NONE', ( #155, #81 ), #197, .T. ) ;
#256 = ORIENTED_EDGE ( 'NONE', *, *, #112, .F. ) ;
#257 = APPROVAL_DATE_TIME ( #67, #204 ) ;
#258 = CYLINDRICAL_SURFACE ( 'NONE', #176, 3.300000000000007816 ) ;
#259 = PRODUCT_DEFINITION_FORMATION_WITH_SPECIFIED_SOURCE ( 'ANY', '', #153, .NOT_KNOWN. ) ;
#260 = CARTESIAN_POINT ( 'NONE',  ( 1.779970620286548210E-13, -2.206010359521765363E-14, 50.98038475772931122 ) ) ;
#261 = DIRECTION ( 'NONE',  ( 3.491481338843133355E-15, -4.327174794786742882E-16, 1.000000000000000000 ) ) ;
#262 = CARTESIAN_POINT ( 'NONE',  ( 3.533379114909250198E-13, -1.239342560737121245E-14, 101.1999999999999886 ) ) ;
#263 = CARTESIAN_POINT ( 'NONE',  ( 1.745740669421566678E-13, -2.163587397393371757E-14, 50.00000000000000000 ) ) ;
ENDSEC;
END-ISO-10303-21;
