ISO-10303-21;
HEADER;
FILE_DESCRIPTION (( 'STEP AP203' ),
    '1' );
FILE_NAME ('960179.step',
    '2021-10-13T12:57:11',
    ( '' ),
    ( '' ),
    'SwSTEP 2.0',
    'SolidWorks 2019',
    '' );
FILE_SCHEMA (( 'CONFIG_CONTROL_DESIGN' ));
ENDSEC;

DATA;
#1 = AXIS2_PLACEMENT_3D ( 'NONE', #165, #227, #199 ) ;
#2 = DIRECTION ( 'NONE',  ( 1.510825004591027679E-30, 1.000000000000000000, 4.327174794786743375E-16 ) ) ;
#3 = AXIS2_PLACEMENT_3D ( 'NONE', #225, #186, #248 ) ;
#4 = PERSON_AND_ORGANIZATION_ROLE ( 'design_owner' ) ;
#5 = DIRECTION ( 'NONE',  ( -3.491481338843133355E-15, 4.327174794786742882E-16, -1.000000000000000000 ) ) ;
#6 = PERSON_AND_ORGANIZATION ( #201, #197 ) ;
#7 = EDGE_CURVE ( 'NONE', #136, #136, #52, .T. ) ;
#8 = DIRECTION ( 'NONE',  ( -3.491481338843133355E-15, 1.224646799147353207E-16, -1.000000000000000000 ) ) ;
#9 = LOCAL_TIME ( 14, 57, 11.00000000000000000, #64 ) ;
#10 = DIRECTION ( 'NONE',  ( 3.491481338843133355E-15, -1.224646799147353207E-16, 1.000000000000000000 ) ) ;
#11 = EDGE_CURVE ( 'NONE', #258, #258, #86, .T. ) ;
#12 = CC_DESIGN_APPROVAL ( #32, ( #220 ) ) ;
#13 = DIRECTION ( 'NONE',  ( 4.275831445896958607E-31, 1.000000000000000000, 1.224646799147353207E-16 ) ) ;
#14 = ORIENTED_EDGE ( 'NONE', *, *, #213, .F. ) ;
#15 = ORIENTED_EDGE ( 'NONE', *, *, #23, .F. ) ;
#16 = DESIGN_CONTEXT ( 'detailed design', #125, 'design' ) ;
#17 = EDGE_LOOP ( 'NONE', ( #72 ) ) ;
#18 = FACE_OUTER_BOUND ( 'NONE', #115, .T. ) ;
#19 = CARTESIAN_POINT ( 'NONE',  ( 4.130084662713191828E-15, -3.250000000000007550, 1.182903261365175540 ) ) ;
#20 = PERSON_AND_ORGANIZATION_ROLE ( 'design_supplier' ) ;
#21 = DIRECTION ( 'NONE',  ( 3.491481338843133355E-15, -4.327174794786742882E-16, 1.000000000000000000 ) ) ;
#22 = DIRECTION ( 'NONE',  ( 1.000000000000000000, 0.0000000000000000000, 0.0000000000000000000 ) ) ;
#23 = EDGE_CURVE ( 'NONE', #119, #119, #202, .T. ) ;
#24 = CARTESIAN_POINT ( 'NONE',  ( 0.0000000000000000000, 0.0000000000000000000, 0.0000000000000000000 ) ) ;
#25 = DIRECTION ( 'NONE',  ( 0.0000000000000000000, -1.000000000000000000, 0.0000000000000000000 ) ) ;
#26 = SHAPE_DEFINITION_REPRESENTATION ( #135, #112 ) ;
#27 = FACE_OUTER_BOUND ( 'NONE', #17, .T. ) ;
#28 = CARTESIAN_POINT ( 'NONE',  ( 0.0000000000000000000, 0.0000000000000000000, 0.0000000000000000000 ) ) ;
#29 = DIRECTION ( 'NONE',  ( 0.0000000000000000000, 1.000000000000000000, 0.0000000000000000000 ) ) ;
#30 = CARTESIAN_POINT ( 'NONE',  ( 1.476896606330645220E-13, -3.250000000000025757, 42.29999999999999716 ) ) ;
#31 = MANIFOLD_SOLID_BREP ( 'Corps-Déplacer/Copier1[2]', #234 ) ;
#32 = APPROVAL ( #166, 'UNSPECIFIED' ) ;
#33 = EDGE_LOOP ( 'NONE', ( #157 ) ) ;
#34 = FACE_OUTER_BOUND ( 'NONE', #173, .T. ) ;
#35 = EDGE_LOOP ( 'NONE', ( #161 ) ) ;
#36 = CC_DESIGN_APPROVAL ( #206, ( #255 ) ) ;
#37 = CC_DESIGN_PERSON_AND_ORGANIZATION_ASSIGNMENT ( #262, #205, ( #220 ) ) ;
#38 = DIRECTION ( 'NONE',  ( 3.491481338843133355E-15, -1.224646799147353207E-16, 1.000000000000000000 ) ) ;
#39 = CC_DESIGN_PERSON_AND_ORGANIZATION_ASSIGNMENT ( #243, #20, ( #255 ) ) ;
#40 = CIRCLE ( 'NONE', #252, 3.383974596215578057 ) ;
#41 = CARTESIAN_POINT ( 'NONE',  ( 3.533379114909250198E-13, -1.239342560737121245E-14, 101.1999999999999886 ) ) ;
#42 = DATE_TIME_ROLE ( 'classification_date' ) ;
#43 = MECHANICAL_CONTEXT ( 'NONE', #176, 'mechanical' ) ;
#44 = DIRECTION ( 'NONE',  ( 1.510825004591027855E-30, 1.000000000000000000, 4.327174794786742882E-16 ) ) ;
#45 = AXIS2_PLACEMENT_3D ( 'NONE', #253, #38, #71 ) ;
#46 = FACE_OUTER_BOUND ( 'NONE', #33, .T. ) ;
#47 = AXIS2_PLACEMENT_3D ( 'NONE', #138, #63, #2 ) ;
#48 = APPROVAL_PERSON_ORGANIZATION ( #140, #187, #204 ) ;
#49 = ORIENTED_EDGE ( 'NONE', *, *, #263, .T. ) ;
#50 = ADVANCED_FACE ( 'NONE', ( #224, #180 ), #189, .T. ) ;
#51 = EDGE_LOOP ( 'NONE', ( #257 ) ) ;
#52 = CIRCLE ( 'NONE', #210, 3.250000000000007550 ) ;
#53 = EDGE_LOOP ( 'NONE', ( #102 ) ) ;
#54 = EDGE_CURVE ( 'NONE', #75, #75, #73, .T. ) ;
#55 = LOCAL_TIME ( 14, 57, 11.00000000000000000, #159 ) ;
#56 = CARTESIAN_POINT ( 'NONE',  ( 1.703842893355448825E-13, -2.081668171172168513E-14, 48.79999999999999716 ) ) ;
#57 = CARTESIAN_POINT ( 'NONE',  ( 3.561310965619995770E-13, 3.199999999999989964, 102.0000000000000000 ) ) ;
#58 = CARTESIAN_POINT ( 'NONE',  ( 1.476896606330645220E-13, -1.830394938194792208E-14, 42.29999999999999716 ) ) ;
#59 = COORDINATED_UNIVERSAL_TIME_OFFSET ( 1, 0, .AHEAD. ) ;
#60 = ADVANCED_FACE ( 'NONE', ( #121, #219 ), #124, .T. ) ;
#61 = DATE_AND_TIME ( #240, #55 ) ;
#62 = CONICAL_SURFACE ( 'NONE', #211, 3.200000000000002842, 0.7853981633974420618 ) ;
#63 = DIRECTION ( 'NONE',  ( -3.491481338843133355E-15, 4.327174794786742882E-16, -1.000000000000000000 ) ) ;
#64 = COORDINATED_UNIVERSAL_TIME_OFFSET ( 1, 0, .AHEAD. ) ;
#65 = FACE_OUTER_BOUND ( 'NONE', #53, .T. ) ;
#66 = APPROVAL_DATE_TIME ( #244, #206 ) ;
#67 = DIRECTION ( 'NONE',  ( 1.510825004591027679E-30, 1.000000000000000000, 4.327174794786743375E-16 ) ) ;
#68 = FACE_OUTER_BOUND ( 'NONE', #216, .T. ) ;
#69 = AXIS2_PLACEMENT_3D ( 'NONE', #41, #145, #139 ) ;
#70 = FACE_OUTER_BOUND ( 'NONE', #94, .T. ) ;
#71 = DIRECTION ( 'NONE',  ( -4.275831445896958607E-31, -1.000000000000000000, -1.224646799147353207E-16 ) ) ;
#72 = ORIENTED_EDGE ( 'NONE', *, *, #54, .T. ) ;
#73 = CIRCLE ( 'NONE', #69, 4.000000000000001776 ) ;
#74 = ORIENTED_EDGE ( 'NONE', *, *, #104, .F. ) ;
#75 = VERTEX_POINT ( 'NONE', #154 ) ;
#76 = CARTESIAN_POINT ( 'NONE',  ( 1.703842893355448825E-13, 3.249999999999994227, 48.79999999999999716 ) ) ;
#77 = CALENDAR_DATE ( 2021, 13, 10 ) ;
#78 = DATE_TIME_ROLE ( 'creation_date' ) ;
#79 = LOCAL_TIME ( 14, 57, 11.00000000000000000, #183 ) ;
#80 = DIRECTION ( 'NONE',  ( 0.0000000000000000000, -1.000000000000000000, 0.0000000000000000000 ) ) ;
#81 = CC_DESIGN_PERSON_AND_ORGANIZATION_ASSIGNMENT ( #208, #4, ( #87 ) ) ;
#82 = PERSON_AND_ORGANIZATION ( #201, #197 ) ;
#83 = COORDINATED_UNIVERSAL_TIME_OFFSET ( 1, 0, .AHEAD. ) ;
#84 = DIRECTION ( 'NONE',  ( -3.491481338843133355E-15, 4.327174794786742882E-16, -1.000000000000000000 ) ) ;
#85 = EDGE_CURVE ( 'NONE', #179, #179, #132, .T. ) ;
#86 = CIRCLE ( 'NONE', #95, 3.250000000000007550 ) ;
#87 = PRODUCT ( '960179', '960179', '', ( #43 ) ) ;
#88 = CARTESIAN_POINT ( 'NONE',  ( 1.476896606330645220E-13, -3.250000000000025757, 42.29999999999999716 ) ) ;
#89 = CC_DESIGN_APPROVAL ( #187, ( #260 ) ) ;
#90 =( GEOMETRIC_REPRESENTATION_CONTEXT ( 3 ) GLOBAL_UNCERTAINTY_ASSIGNED_CONTEXT ( ( #158 ) ) GLOBAL_UNIT_ASSIGNED_CONTEXT ( ( #193, #144, #106 ) ) REPRESENTATION_CONTEXT ( 'NONE', 'WORKASPACE' ) );
#91 = CARTESIAN_POINT ( 'NONE',  ( 1.758553962450923339E-13, -4.000000000000020428, 50.36698729810775177 ) ) ;
#92 = ORIENTED_EDGE ( 'NONE', *, *, #54, .F. ) ;
#93 = ADVANCED_FACE ( 'NONE', ( #18, #178 ), #217, .F. ) ;
#94 = EDGE_LOOP ( 'NONE', ( #239 ) ) ;
#95 = AXIS2_PLACEMENT_3D ( 'NONE', #58, #126, #80 ) ;
#96 = PLANE ( 'NONE',  #3 ) ;
#97 = EDGE_LOOP ( 'NONE', ( #14 ) ) ;
#98 = DIRECTION ( 'NONE',  ( -3.491481338843133355E-15, 1.224646799147353207E-16, -1.000000000000000000 ) ) ;
#99 = SECURITY_CLASSIFICATION_LEVEL ( 'unclassified' ) ;
#100 = DIRECTION ( 'NONE',  ( 0.0000000000000000000, -1.000000000000000000, 0.0000000000000000000 ) ) ;
#101 = APPLICATION_PROTOCOL_DEFINITION ( 'international standard', 'config_control_design', 1994, #125 ) ;
#102 = ORIENTED_EDGE ( 'NONE', *, *, #7, .F. ) ;
#103 = APPLICATION_PROTOCOL_DEFINITION ( 'international standard', 'config_control_design', 1994, #176 ) ;
#104 = EDGE_CURVE ( 'NONE', #259, #259, #175, .T. ) ;
#105 = EDGE_LOOP ( 'NONE', ( #49 ) ) ;
#106 =( NAMED_UNIT ( * ) SI_UNIT ( $, .STERADIAN. ) SOLID_ANGLE_UNIT ( ) );
#107 = DATE_AND_TIME ( #167, #203 ) ;
#108 = FACE_BOUND ( 'NONE', #105, .T. ) ;
#109 = DIRECTION ( 'NONE',  ( -3.851859888774481340E-31, -1.000000000000000000, -1.084202172485507146E-16 ) ) ;
#110 = CARTESIAN_POINT ( 'NONE',  ( 0.0000000000000000000, 0.0000000000000000000, 0.0000000000000000000 ) ) ;
#111 = APPROVAL_DATE_TIME ( #245, #187 ) ;
#112 = ADVANCED_BREP_SHAPE_REPRESENTATION ( '960179', ( #118, #31, #133 ), #90 ) ;
#113 = DIRECTION ( 'NONE',  ( -3.491481338843133355E-15, 1.224646799147353207E-16, -1.000000000000000000 ) ) ;
#114 = AXIS2_PLACEMENT_3D ( 'NONE', #110, #8, #13 ) ;
#115 = EDGE_LOOP ( 'NONE', ( #74 ) ) ;
#116 = EDGE_LOOP ( 'NONE', ( #15 ) ) ;
#117 = CLOSED_SHELL ( 'NONE', ( #231, #195, #238, #242, #50, #93, #251 ) ) ;
#118 = MANIFOLD_SOLID_BREP ( 'Corps-Déplacer/Copier1[1]', #117 ) ;
#119 = VERTEX_POINT ( 'NONE', #91 ) ;
#120 = PERSON_AND_ORGANIZATION ( #201, #197 ) ;
#121 = FACE_OUTER_BOUND ( 'NONE', #35, .T. ) ;
#122 = APPROVAL_PERSON_ORGANIZATION ( #82, #32, #184 ) ;
#123 = CALENDAR_DATE ( 2021, 13, 10 ) ;
#124 = CYLINDRICAL_SURFACE ( 'NONE', #47, 3.250000000000007550 ) ;
#125 = APPLICATION_CONTEXT ( 'configuration controlled 3d designs of mechanical parts and assemblies' ) ;
#126 = DIRECTION ( 'NONE',  ( -3.491481338843133355E-15, 1.224646799147353207E-16, -1.000000000000000000 ) ) ;
#127 = APPROVAL_DATE_TIME ( #107, #32 ) ;
#128 = AXIS2_PLACEMENT_3D ( 'NONE', #147, #129, #109 ) ;
#129 = DIRECTION ( 'NONE',  ( 3.491481338843133355E-15, -1.224646799147353207E-16, 1.000000000000000000 ) ) ;
#130 = FACE_OUTER_BOUND ( 'NONE', #51, .T. ) ;
#131 = CC_DESIGN_PERSON_AND_ORGANIZATION_ASSIGNMENT ( #160, #182, ( #260 ) ) ;
#132 = CIRCLE ( 'NONE', #1, 3.250000000000007550 ) ;
#133 = AXIS2_PLACEMENT_3D ( 'NONE', #24, #226, #22 ) ;
#134 = EDGE_LOOP ( 'NONE', ( #233 ) ) ;
#135 = PRODUCT_DEFINITION_SHAPE ( 'NONE', 'NONE',  #220 ) ;
#136 = VERTEX_POINT ( 'NONE', #30 ) ;
#137 = EDGE_LOOP ( 'NONE', ( #196 ) ) ;
#138 = CARTESIAN_POINT ( 'NONE',  ( 0.0000000000000000000, 0.0000000000000000000, 0.0000000000000000000 ) ) ;
#139 = DIRECTION ( 'NONE',  ( 0.0000000000000000000, 1.000000000000000000, 0.0000000000000000000 ) ) ;
#140 = PERSON_AND_ORGANIZATION ( #201, #197 ) ;
#141 = CARTESIAN_POINT ( 'NONE',  ( 1.788791077813698887E-13, -2.216942012246170555E-14, 51.23301270189222123 ) ) ;
#142 = CALENDAR_DATE ( 2021, 13, 10 ) ;
#143 = CARTESIAN_POINT ( 'NONE',  ( 1.476896606330645220E-13, -1.830394938194792208E-14, 42.29999999999999716 ) ) ;
#144 =( NAMED_UNIT ( * ) PLANE_ANGLE_UNIT ( ) SI_UNIT ( $, .RADIAN. ) );
#145 = DIRECTION ( 'NONE',  ( -3.491481338843133355E-15, 1.224646799147353207E-16, -1.000000000000000000 ) ) ;
#146 = ADVANCED_FACE ( 'NONE', ( #68 ), #235, .T. ) ;
#147 = CARTESIAN_POINT ( 'NONE',  ( 5.083181123339289718E-15, -1.782939929516086737E-16, 1.455880937064824687 ) ) ;
#148 = AXIS2_PLACEMENT_3D ( 'NONE', #188, #10, #250 ) ;
#149 = VERTEX_POINT ( 'NONE', #57 ) ;
#150 = CARTESIAN_POINT ( 'NONE',  ( 3.561310965619995770E-13, -1.249139735130300089E-14, 102.0000000000000000 ) ) ;
#151 = AXIS2_PLACEMENT_3D ( 'NONE', #185, #21, #100 ) ;
#152 = EDGE_LOOP ( 'NONE', ( #256 ) ) ;
#153 = CC_DESIGN_PERSON_AND_ORGANIZATION_ASSIGNMENT ( #120, #200, ( #255 ) ) ;
#154 = CARTESIAN_POINT ( 'NONE',  ( 3.533379114909250198E-13, 3.999999999999989786, 101.1999999999999886 ) ) ;
#155 = CARTESIAN_POINT ( 'NONE',  ( 1.703842893355448825E-13, -2.111661299855930337E-14, 48.79999999999999716 ) ) ;
#156 = VERTEX_POINT ( 'NONE', #237 ) ;
#157 = ORIENTED_EDGE ( 'NONE', *, *, #11, .F. ) ;
#158 = UNCERTAINTY_MEASURE_WITH_UNIT (LENGTH_MEASURE( 1.000000000000000082E-05 ), #193, 'distance_accuracy_value', 'NONE');
#159 = COORDINATED_UNIVERSAL_TIME_OFFSET ( 1, 0, .AHEAD. ) ;
#160 = PERSON_AND_ORGANIZATION ( #201, #197 ) ;
#161 = ORIENTED_EDGE ( 'NONE', *, *, #11, .T. ) ;
#162 = AXIS2_PLACEMENT_3D ( 'NONE', #141, #261, #25 ) ;
#163 = APPROVAL_PERSON_ORGANIZATION ( #6, #206, #228 ) ;
#164 = APPROVAL_STATUS ( 'not_yet_approved' ) ;
#165 = CARTESIAN_POINT ( 'NONE',  ( 4.130084662713193406E-15, -1.448638692731827531E-16, 1.182903261365175984 ) ) ;
#166 = APPROVAL_STATUS ( 'not_yet_approved' ) ;
#167 = CALENDAR_DATE ( 2021, 13, 10 ) ;
#168 = CYLINDRICAL_SURFACE ( 'NONE', #171, 3.250000000000007550 ) ;
#169 = DIRECTION ( 'NONE',  ( -3.491481338843133355E-15, 4.327174794786742882E-16, -1.000000000000000000 ) ) ;
#170 = FACE_OUTER_BOUND ( 'NONE', #177, .T. ) ;
#171 = AXIS2_PLACEMENT_3D ( 'NONE', #28, #249, #67 ) ;
#172 = LOCAL_TIME ( 14, 57, 11.00000000000000000, #83 ) ;
#173 = EDGE_LOOP ( 'NONE', ( #215 ) ) ;
#174 = CC_DESIGN_DATE_AND_TIME_ASSIGNMENT ( #223, #78, ( #220 ) ) ;
#175 = CIRCLE ( 'NONE', #222, 3.250000000000015543 ) ;
#176 = APPLICATION_CONTEXT ( 'configuration controlled 3d designs of mechanical parts and assemblies' ) ;
#177 = EDGE_LOOP ( 'NONE', ( #92 ) ) ;
#178 = FACE_OUTER_BOUND ( 'NONE', #137, .T. ) ;
#179 = VERTEX_POINT ( 'NONE', #19 ) ;
#180 = FACE_OUTER_BOUND ( 'NONE', #116, .T. ) ;
#181 = AXIS2_PLACEMENT_3D ( 'NONE', #56, #5, #44 ) ;
#182 = PERSON_AND_ORGANIZATION_ROLE ( 'classification_officer' ) ;
#183 = COORDINATED_UNIVERSAL_TIME_OFFSET ( 1, 0, .AHEAD. ) ;
#184 = APPROVAL_ROLE ( '' ) ;
#185 = CARTESIAN_POINT ( 'NONE',  ( 1.758553962450923339E-13, -2.179467579257158573E-14, 50.36698729810775177 ) ) ;
#186 = DIRECTION ( 'NONE',  ( -3.491481338843133355E-15, 1.224646799147353207E-16, -1.000000000000000000 ) ) ;
#187 = APPROVAL ( #221, 'UNSPECIFIED' ) ;
#188 = CARTESIAN_POINT ( 'NONE',  ( 1.476896606330645220E-13, 2.999519565323704268E-32, 42.29999999999999716 ) ) ;
#189 = CONICAL_SURFACE ( 'NONE', #162, 4.500000000000017764, 0.5235987755982985936 ) ;
#190 = ADVANCED_FACE ( 'NONE', ( #46 ), #191, .T. ) ;
#191 = PLANE ( 'NONE',  #148 ) ;
#192 = CARTESIAN_POINT ( 'NONE',  ( 1.721300300049664681E-13, -2.133297173829863894E-14, 49.29999999999999716 ) ) ;
#193 =( LENGTH_UNIT ( ) NAMED_UNIT ( * ) SI_UNIT ( .MILLI., .METRE. ) );
#194 = DIRECTION ( 'NONE',  ( -3.491481338843133355E-15, 1.224646799147353207E-16, -1.000000000000000000 ) ) ;
#195 = ADVANCED_FACE ( 'NONE', ( #170, #108 ), #62, .T. ) ;
#196 = ORIENTED_EDGE ( 'NONE', *, *, #213, .T. ) ;
#197 = ORGANIZATION ( 'UNSPECIFIED', 'UNSPECIFIED', '' ) ;
#198 = CARTESIAN_POINT ( 'NONE',  ( 3.561310965619995770E-13, -1.249139735130300089E-14, 102.0000000000000000 ) ) ;
#199 = DIRECTION ( 'NONE',  ( -4.740750632337800619E-31, -1.000000000000000000, -1.334402673828310134E-16 ) ) ;
#200 = PERSON_AND_ORGANIZATION_ROLE ( 'creator' ) ;
#201 = PERSON ( 'UNSPECIFIED', 'UNSPECIFIED', 'UNSPECIFIED', ('UNSPECIFIED'), ('UNSPECIFIED'), ('UNSPECIFIED') ) ;
#202 = CIRCLE ( 'NONE', #151, 3.999999999999998224 ) ;
#203 = LOCAL_TIME ( 14, 57, 11.00000000000000000, #59 ) ;
#204 = APPROVAL_ROLE ( '' ) ;
#205 = PERSON_AND_ORGANIZATION_ROLE ( 'creator' ) ;
#206 = APPROVAL ( #164, 'UNSPECIFIED' ) ;
#207 = CIRCLE ( 'NONE', #232, 3.200000000000002842 ) ;
#208 = PERSON_AND_ORGANIZATION ( #201, #197 ) ;
#209 = DIRECTION ( 'NONE',  ( 0.0000000000000000000, 1.000000000000000000, 0.0000000000000000000 ) ) ;
#210 = AXIS2_PLACEMENT_3D ( 'NONE', #143, #98, #241 ) ;
#211 = AXIS2_PLACEMENT_3D ( 'NONE', #150, #113, #29 ) ;
#212 = DIRECTION ( 'NONE',  ( 0.0000000000000000000, 1.000000000000000000, 0.0000000000000000000 ) ) ;
#213 = EDGE_CURVE ( 'NONE', #156, #156, #40, .T. ) ;
#214 = ORIENTED_EDGE ( 'NONE', *, *, #85, .T. ) ;
#215 = ORIENTED_EDGE ( 'NONE', *, *, #263, .F. ) ;
#216 = EDGE_LOOP ( 'NONE', ( #214 ) ) ;
#217 = TOROIDAL_SURFACE ( 'NONE', #181, 4.250000000000015099, 0.9999999999999995559 ) ;
#218 = PLANE ( 'NONE',  #45 ) ;
#219 = FACE_OUTER_BOUND ( 'NONE', #152, .T. ) ;
#220 = PRODUCT_DEFINITION ( 'UNKNOWN', '', #255, #16 ) ;
#221 = APPROVAL_STATUS ( 'not_yet_approved' ) ;
#222 = AXIS2_PLACEMENT_3D ( 'NONE', #155, #169, #209 ) ;
#223 = DATE_AND_TIME ( #142, #9 ) ;
#224 = FACE_BOUND ( 'NONE', #97, .T. ) ;
#225 = CARTESIAN_POINT ( 'NONE',  ( 3.561310965619995770E-13, 2.399615652258955477E-32, 102.0000000000000000 ) ) ;
#226 = DIRECTION ( 'NONE',  ( 0.0000000000000000000, 0.0000000000000000000, 1.000000000000000000 ) ) ;
#227 = DIRECTION ( 'NONE',  ( -3.491481338843133355E-15, 1.224646799147353207E-16, -1.000000000000000000 ) ) ;
#228 = APPROVAL_ROLE ( '' ) ;
#229 = CC_DESIGN_SECURITY_CLASSIFICATION ( #260, ( #255 ) ) ;
#230 = DIRECTION ( 'NONE',  ( 0.0000000000000000000, 1.000000000000000000, 0.0000000000000000000 ) ) ;
#231 = ADVANCED_FACE ( 'NONE', ( #130, #27 ), #246, .T. ) ;
#232 = AXIS2_PLACEMENT_3D ( 'NONE', #198, #194, #212 ) ;
#233 = ORIENTED_EDGE ( 'NONE', *, *, #104, .T. ) ;
#234 = CLOSED_SHELL ( 'NONE', ( #146, #60, #190 ) ) ;
#235 = CONICAL_SURFACE ( 'NONE', #128, 3.999999999999989786, 1.221730476396026610 ) ;
#236 = FACE_OUTER_BOUND ( 'NONE', #134, .T. ) ;
#237 = CARTESIAN_POINT ( 'NONE',  ( 1.721300300049664681E-13, 3.383974596215556740, 49.29999999999999716 ) ) ;
#238 = ADVANCED_FACE ( 'NONE', ( #34 ), #96, .F. ) ;
#239 = ORIENTED_EDGE ( 'NONE', *, *, #7, .T. ) ;
#240 = CALENDAR_DATE ( 2021, 13, 10 ) ;
#241 = DIRECTION ( 'NONE',  ( 0.0000000000000000000, -1.000000000000000000, 0.0000000000000000000 ) ) ;
#242 = ADVANCED_FACE ( 'NONE', ( #236, #65 ), #168, .T. ) ;
#243 = PERSON_AND_ORGANIZATION ( #201, #197 ) ;
#244 = DATE_AND_TIME ( #123, #172 ) ;
#245 = DATE_AND_TIME ( #77, #79 ) ;
#246 = CYLINDRICAL_SURFACE ( 'NONE', #114, 3.999999999999998224 ) ;
#247 = PRODUCT_RELATED_PRODUCT_CATEGORY ( 'detail', '', ( #87 ) ) ;
#248 = DIRECTION ( 'NONE',  ( 4.275831445896958607E-31, 1.000000000000000000, 1.224646799147353207E-16 ) ) ;
#249 = DIRECTION ( 'NONE',  ( -3.491481338843133355E-15, 4.327174794786742882E-16, -1.000000000000000000 ) ) ;
#250 = DIRECTION ( 'NONE',  ( -4.275831445896958607E-31, -1.000000000000000000, -1.224646799147353207E-16 ) ) ;
#251 = ADVANCED_FACE ( 'NONE', ( #70 ), #218, .F. ) ;
#252 = AXIS2_PLACEMENT_3D ( 'NONE', #192, #84, #230 ) ;
#253 = CARTESIAN_POINT ( 'NONE',  ( 1.476896606330645220E-13, 2.999519565323704268E-32, 42.29999999999999716 ) ) ;
#254 = CC_DESIGN_DATE_AND_TIME_ASSIGNMENT ( #61, #42, ( #260 ) ) ;
#255 = PRODUCT_DEFINITION_FORMATION_WITH_SPECIFIED_SOURCE ( 'ANY', '', #87, .NOT_KNOWN. ) ;
#256 = ORIENTED_EDGE ( 'NONE', *, *, #85, .F. ) ;
#257 = ORIENTED_EDGE ( 'NONE', *, *, #23, .T. ) ;
#258 = VERTEX_POINT ( 'NONE', #88 ) ;
#259 = VERTEX_POINT ( 'NONE', #76 ) ;
#260 = SECURITY_CLASSIFICATION ( '', '', #99 ) ;
#261 = DIRECTION ( 'NONE',  ( 3.491481338843133355E-15, -4.327174794786742882E-16, 1.000000000000000000 ) ) ;
#262 = PERSON_AND_ORGANIZATION ( #201, #197 ) ;
#263 = EDGE_CURVE ( 'NONE', #149, #149, #207, .T. ) ;
ENDSEC;
END-ISO-10303-21;
