ISO-10303-21;
HEADER;
FILE_DESCRIPTION (( 'STEP AP203' ),
    '1' );
FILE_NAME ('960178.step',
    '2021-10-13T12:57:11',
    ( '' ),
    ( '' ),
    'SwSTEP 2.0',
    'SolidWorks 2019',
    '' );
FILE_SCHEMA (( 'CONFIG_CONTROL_DESIGN' ));
ENDSEC;

DATA;
#1 = APPROVAL_STATUS ( 'not_yet_approved' ) ;
#2 = DIRECTION ( 'NONE',  ( 1.510825004591027679E-30, 1.000000000000000000, 4.327174794786742389E-16 ) ) ;
#3 = CIRCLE ( 'NONE', #149, 4.000000000000001776 ) ;
#4 = DIRECTION ( 'NONE',  ( 0.0000000000000000000, -1.000000000000000000, 0.0000000000000000000 ) ) ;
#5 = ORIENTED_EDGE ( 'NONE', *, *, #219, .T. ) ;
#6 = APPROVAL ( #135, 'UNSPECIFIED' ) ;
#7 = DIRECTION ( 'NONE',  ( 0.0000000000000000000, 1.000000000000000000, 0.0000000000000000000 ) ) ;
#8 = FACE_OUTER_BOUND ( 'NONE', #201, .T. ) ;
#9 = APPROVAL_PERSON_ORGANIZATION ( #84, #233, #129 ) ;
#10 = VERTEX_POINT ( 'NONE', #255 ) ;
#11 = UNCERTAINTY_MEASURE_WITH_UNIT (LENGTH_MEASURE( 1.000000000000000082E-05 ), #62, 'distance_accuracy_value', 'NONE');
#12 = CARTESIAN_POINT ( 'NONE',  ( 1.441981792942214013E-13, -3.175000000000025580, 41.29999999999999716 ) ) ;
#13 = FACE_OUTER_BOUND ( 'NONE', #130, .T. ) ;
#14 = PERSON_AND_ORGANIZATION ( #186, #97 ) ;
#15 = COORDINATED_UNIVERSAL_TIME_OFFSET ( 1, 0, .AHEAD. ) ;
#16 = ORIENTED_EDGE ( 'NONE', *, *, #219, .F. ) ;
#17 = COORDINATED_UNIVERSAL_TIME_OFFSET ( 1, 0, .AHEAD. ) ;
#18 = EDGE_LOOP ( 'NONE', ( #5 ) ) ;
#19 = LOCAL_TIME ( 14, 57, 11.00000000000000000, #17 ) ;
#20 = EDGE_LOOP ( 'NONE', ( #221 ) ) ;
#21 = CYLINDRICAL_SURFACE ( 'NONE', #39, 3.175000000000007816 ) ;
#22 = DIRECTION ( 'NONE',  ( -3.491481338843133355E-15, 1.224646799147353207E-16, -1.000000000000000000 ) ) ;
#23 = FACE_OUTER_BOUND ( 'NONE', #128, .T. ) ;
#24 = DIRECTION ( 'NONE',  ( -3.491481338843133355E-15, 4.327174794786742882E-16, -1.000000000000000000 ) ) ;
#25 = ADVANCED_FACE ( 'NONE', ( #192, #228 ), #110, .F. ) ;
#26 = VERTEX_POINT ( 'NONE', #169 ) ;
#27 = AXIS2_PLACEMENT_3D ( 'NONE', #117, #37, #95 ) ;
#28 = CARTESIAN_POINT ( 'NONE',  ( 1.661945117289331477E-13, 3.174999999999994493, 47.60000000000000142 ) ) ;
#29 = ADVANCED_FACE ( 'NONE', ( #36, #209 ), #204, .T. ) ;
#30 = DIRECTION ( 'NONE',  ( -4.275831445896958607E-31, -1.000000000000000000, -1.224646799147353207E-16 ) ) ;
#31 = AXIS2_PLACEMENT_3D ( 'NONE', #43, #80, #197 ) ;
#32 = DIRECTION ( 'NONE',  ( -3.491481338843133355E-15, 4.327174794786742882E-16, -1.000000000000000000 ) ) ;
#33 = DATE_AND_TIME ( #261, #19 ) ;
#34 = ORIENTED_EDGE ( 'NONE', *, *, #89, .T. ) ;
#35 = CC_DESIGN_APPROVAL ( #252, ( #87 ) ) ;
#36 = FACE_OUTER_BOUND ( 'NONE', #132, .T. ) ;
#37 = DIRECTION ( 'NONE',  ( -3.491481338843133355E-15, 1.224646799147353207E-16, -1.000000000000000000 ) ) ;
#38 = ORIENTED_EDGE ( 'NONE', *, *, #212, .T. ) ;
#39 = AXIS2_PLACEMENT_3D ( 'NONE', #188, #24, #2 ) ;
#40 = PLANE ( 'NONE',  #232 ) ;
#41 = CLOSED_SHELL ( 'NONE', ( #29, #116, #170, #67, #147, #25, #173 ) ) ;
#42 = PERSON_AND_ORGANIZATION_ROLE ( 'design_owner' ) ;
#43 = CARTESIAN_POINT ( 'NONE',  ( 4.034775016650582355E-15, -1.415208569053401068E-16, 1.155605493795210492 ) ) ;
#44 = AXIS2_PLACEMENT_3D ( 'NONE', #206, #163, #57 ) ;
#45 = LOCAL_TIME ( 14, 57, 11.00000000000000000, #177 ) ;
#46 = DIRECTION ( 'NONE',  ( 1.510825004591027679E-30, 1.000000000000000000, 4.327174794786742389E-16 ) ) ;
#47 = LOCAL_TIME ( 14, 57, 11.00000000000000000, #15 ) ;
#48 = CALENDAR_DATE ( 2021, 13, 10 ) ;
#49 = EDGE_CURVE ( 'NONE', #256, #256, #241, .T. ) ;
#50 = CLOSED_SHELL ( 'NONE', ( #74, #178, #260 ) ) ;
#51 = DATE_TIME_ROLE ( 'classification_date' ) ;
#52 = EDGE_LOOP ( 'NONE', ( #162 ) ) ;
#53 = APPROVAL_STATUS ( 'not_yet_approved' ) ;
#54 = EDGE_LOOP ( 'NONE', ( #55 ) ) ;
#55 = ORIENTED_EDGE ( 'NONE', *, *, #150, .T. ) ;
#56 = CALENDAR_DATE ( 2021, 13, 10 ) ;
#57 = DIRECTION ( 'NONE',  ( 0.0000000000000000000, -1.000000000000000000, 0.0000000000000000000 ) ) ;
#58 = DIRECTION ( 'NONE',  ( -3.491481338843133355E-15, 4.327174794786742882E-16, -1.000000000000000000 ) ) ;
#59 = CARTESIAN_POINT ( 'NONE',  ( 1.751428869051997859E-13, -2.170637079657081217E-14, 50.16291651245988703 ) ) ;
#60 = CARTESIAN_POINT ( 'NONE',  ( 3.561310965619995770E-13, 2.399615652258955477E-32, 102.0000000000000000 ) ) ;
#61 = CIRCLE ( 'NONE', #174, 3.999999999999998224 ) ;
#62 =( LENGTH_UNIT ( ) NAMED_UNIT ( * ) SI_UNIT ( .MILLI., .METRE. ) );
#63 =( NAMED_UNIT ( * ) PLANE_ANGLE_UNIT ( ) SI_UNIT ( $, .RADIAN. ) );
#64 = VERTEX_POINT ( 'NONE', #28 ) ;
#65 = CIRCLE ( 'NONE', #222, 3.175000000000014921 ) ;
#66 = DIRECTION ( 'NONE',  ( 1.000000000000000000, 0.0000000000000000000, 0.0000000000000000000 ) ) ;
#67 = ADVANCED_FACE ( 'NONE', ( #251, #23 ), #21, .T. ) ;
#68 = ORIENTED_EDGE ( 'NONE', *, *, #141, .T. ) ;
#69 = ORIENTED_EDGE ( 'NONE', *, *, #246, .F. ) ;
#70 = CC_DESIGN_DATE_AND_TIME_ASSIGNMENT ( #111, #51, ( #87 ) ) ;
#71 = CIRCLE ( 'NONE', #185, 3.200000000000002842 ) ;
#72 = APPROVAL_ROLE ( '' ) ;
#73 = FACE_OUTER_BOUND ( 'NONE', #20, .T. ) ;
#74 = ADVANCED_FACE ( 'NONE', ( #73 ), #217, .T. ) ;
#75 = AXIS2_PLACEMENT_3D ( 'NONE', #218, #32, #215 ) ;
#76 = DIRECTION ( 'NONE',  ( 1.510825004591027855E-30, 1.000000000000000000, 4.327174794786742882E-16 ) ) ;
#77 = DIRECTION ( 'NONE',  ( 3.491481338843133355E-15, -1.224646799147353207E-16, 1.000000000000000000 ) ) ;
#78 = DIRECTION ( 'NONE',  ( 4.275831445896958607E-31, 1.000000000000000000, 1.224646799147353207E-16 ) ) ;
#79 = LOCAL_TIME ( 14, 57, 11.00000000000000000, #156 ) ;
#80 = DIRECTION ( 'NONE',  ( -3.491481338843133355E-15, 1.224646799147353207E-16, -1.000000000000000000 ) ) ;
#81 = VERTEX_POINT ( 'NONE', #83 ) ;
#82 = CYLINDRICAL_SURFACE ( 'NONE', #200, 3.175000000000007816 ) ;
#83 = CARTESIAN_POINT ( 'NONE',  ( 3.561310965619995770E-13, 3.199999999999989964, 102.0000000000000000 ) ) ;
#84 = PERSON_AND_ORGANIZATION ( #186, #97 ) ;
#85 = DESIGN_CONTEXT ( 'detailed design', #258, 'design' ) ;
#86 = ORIENTED_EDGE ( 'NONE', *, *, #49, .F. ) ;
#87 = SECURITY_CLASSIFICATION ( '', '', #93 ) ;
#88 = MANIFOLD_SOLID_BREP ( 'Corps-Déplacer/Copier1[1]', #41 ) ;
#89 = EDGE_CURVE ( 'NONE', #81, #81, #71, .T. ) ;
#90 = PERSON_AND_ORGANIZATION_ROLE ( 'creator' ) ;
#91 = PERSON_AND_ORGANIZATION ( #186, #97 ) ;
#92 = EDGE_CURVE ( 'NONE', #123, #123, #126, .T. ) ;
#93 = SECURITY_CLASSIFICATION_LEVEL ( 'unclassified' ) ;
#94 = EDGE_LOOP ( 'NONE', ( #86 ) ) ;
#95 = DIRECTION ( 'NONE',  ( 0.0000000000000000000, -1.000000000000000000, 0.0000000000000000000 ) ) ;
#96 = ORIENTED_EDGE ( 'NONE', *, *, #150, .F. ) ;
#97 = ORGANIZATION ( 'UNSPECIFIED', 'UNSPECIFIED', '' ) ;
#98 = FACE_OUTER_BOUND ( 'NONE', #263, .T. ) ;
#99 = CARTESIAN_POINT ( 'NONE',  ( 3.561310965619995770E-13, -1.249139735130300089E-14, 102.0000000000000000 ) ) ;
#100 = CARTESIAN_POINT ( 'NONE',  ( 0.0000000000000000000, 0.0000000000000000000, 0.0000000000000000000 ) ) ;
#101 = CARTESIAN_POINT ( 'NONE',  ( 0.0000000000000000000, 0.0000000000000000000, 0.0000000000000000000 ) ) ;
#102 = FACE_OUTER_BOUND ( 'NONE', #94, .T. ) ;
#103 = PLANE ( 'NONE',  #133 ) ;
#104 = DIRECTION ( 'NONE',  ( 0.0000000000000000000, 1.000000000000000000, 0.0000000000000000000 ) ) ;
#105 = AXIS2_PLACEMENT_3D ( 'NONE', #59, #146, #140 ) ;
#106 = CARTESIAN_POINT ( 'NONE',  ( 0.0000000000000000000, 0.0000000000000000000, 0.0000000000000000000 ) ) ;
#107 = PERSON_AND_ORGANIZATION_ROLE ( 'design_supplier' ) ;
#108 = AXIS2_PLACEMENT_3D ( 'NONE', #106, #236, #66 ) ;
#109 = DATE_AND_TIME ( #48, #47 ) ;
#110 = TOROIDAL_SURFACE ( 'NONE', #205, 4.175000000000014921, 0.9999999999999991118 ) ;
#111 = DATE_AND_TIME ( #244, #79 ) ;
#112 = ORIENTED_EDGE ( 'NONE', *, *, #212, .F. ) ;
#113 = CIRCLE ( 'NONE', #75, 3.308974596215576991 ) ;
#114 = SHAPE_DEFINITION_REPRESENTATION ( #235, #144 ) ;
#115 = FACE_BOUND ( 'NONE', #202, .T. ) ;
#116 = ADVANCED_FACE ( 'NONE', ( #248, #115 ), #208, .T. ) ;
#117 = CARTESIAN_POINT ( 'NONE',  ( 1.441981792942214013E-13, -1.787123190246924779E-14, 41.29999999999999716 ) ) ;
#118 = AXIS2_PLACEMENT_3D ( 'NONE', #100, #164, #229 ) ;
#119 = CC_DESIGN_PERSON_AND_ORGANIZATION_ASSIGNMENT ( #14, #107, ( #168 ) ) ;
#120 = EDGE_LOOP ( 'NONE', ( #38 ) ) ;
#121 = CARTESIAN_POINT ( 'NONE',  ( 1.441981792942214013E-13, 2.999519565323704268E-32, 41.29999999999999716 ) ) ;
#122 =( NAMED_UNIT ( * ) SI_UNIT ( $, .STERADIAN. ) SOLID_ANGLE_UNIT ( ) );
#123 = VERTEX_POINT ( 'NONE', #259 ) ;
#124 = DIRECTION ( 'NONE',  ( -3.491481338843133355E-15, 4.327174794786742882E-16, -1.000000000000000000 ) ) ;
#125 = PERSON_AND_ORGANIZATION ( #186, #97 ) ;
#126 = CIRCLE ( 'NONE', #44, 3.175000000000007816 ) ;
#127 = PERSON_AND_ORGANIZATION ( #186, #97 ) ;
#128 = EDGE_LOOP ( 'NONE', ( #187 ) ) ;
#129 = APPROVAL_ROLE ( '' ) ;
#130 = EDGE_LOOP ( 'NONE', ( #245 ) ) ;
#131 = PERSON_AND_ORGANIZATION ( #186, #97 ) ;
#132 = EDGE_LOOP ( 'NONE', ( #68 ) ) ;
#133 = AXIS2_PLACEMENT_3D ( 'NONE', #171, #214, #213 ) ;
#134 = PRODUCT_DEFINITION ( 'UNKNOWN', '', #168, #85 ) ;
#135 = APPROVAL_STATUS ( 'not_yet_approved' ) ;
#136 = CALENDAR_DATE ( 2021, 13, 10 ) ;
#137 = FACE_OUTER_BOUND ( 'NONE', #52, .T. ) ;
#138 = APPROVAL_PERSON_ORGANIZATION ( #220, #252, #72 ) ;
#139 = CARTESIAN_POINT ( 'NONE',  ( 1.661945117289331477E-13, -2.081668171172168513E-14, 47.60000000000000142 ) ) ;
#140 = DIRECTION ( 'NONE',  ( 0.0000000000000000000, -1.000000000000000000, 0.0000000000000000000 ) ) ;
#141 = EDGE_CURVE ( 'NONE', #176, #176, #61, .T. ) ;
#142 = APPROVAL_DATE_TIME ( #191, #252 ) ;
#143 = DIRECTION ( 'NONE',  ( -3.491481338843133355E-15, 1.224646799147353207E-16, -1.000000000000000000 ) ) ;
#144 = ADVANCED_BREP_SHAPE_REPRESENTATION ( '960178', ( #88, #182, #108 ), #154 ) ;
#145 = CONICAL_SURFACE ( 'NONE', #105, 4.500000000000016875, 0.5235987755982993708 ) ;
#146 = DIRECTION ( 'NONE',  ( 3.491481338843133355E-15, -4.327174794786742882E-16, 1.000000000000000000 ) ) ;
#147 = ADVANCED_FACE ( 'NONE', ( #231, #137 ), #145, .T. ) ;
#148 = APPLICATION_PROTOCOL_DEFINITION ( 'international standard', 'config_control_design', 1994, #227 ) ;
#149 = AXIS2_PLACEMENT_3D ( 'NONE', #207, #22, #166 ) ;
#150 = EDGE_CURVE ( 'NONE', #216, #216, #3, .T. ) ;
#151 = DIRECTION ( 'NONE',  ( 3.491481338843133355E-15, -1.224646799147353207E-16, 1.000000000000000000 ) ) ;
#152 = MECHANICAL_CONTEXT ( 'NONE', #227, 'mechanical' ) ;
#153 = DATE_TIME_ROLE ( 'creation_date' ) ;
#154 =( GEOMETRIC_REPRESENTATION_CONTEXT ( 3 ) GLOBAL_UNCERTAINTY_ASSIGNED_CONTEXT ( ( #11 ) ) GLOBAL_UNIT_ASSIGNED_CONTEXT ( ( #62, #63, #122 ) ) REPRESENTATION_CONTEXT ( 'NONE', 'WORKASPACE' ) );
#155 = EDGE_LOOP ( 'NONE', ( #16 ) ) ;
#156 = COORDINATED_UNIVERSAL_TIME_OFFSET ( 1, 0, .AHEAD. ) ;
#157 = EDGE_LOOP ( 'NONE', ( #112 ) ) ;
#158 = CC_DESIGN_DATE_AND_TIME_ASSIGNMENT ( #33, #153, ( #134 ) ) ;
#159 = APPLICATION_PROTOCOL_DEFINITION ( 'international standard', 'config_control_design', 1994, #258 ) ;
#160 = COORDINATED_UNIVERSAL_TIME_OFFSET ( 1, 0, .AHEAD. ) ;
#161 = PRODUCT_RELATED_PRODUCT_CATEGORY ( 'detail', '', ( #210 ) ) ;
#162 = ORIENTED_EDGE ( 'NONE', *, *, #141, .F. ) ;
#163 = DIRECTION ( 'NONE',  ( -3.491481338843133355E-15, 1.224646799147353207E-16, -1.000000000000000000 ) ) ;
#164 = DIRECTION ( 'NONE',  ( -3.491481338843133355E-15, 1.224646799147353207E-16, -1.000000000000000000 ) ) ;
#165 = CC_DESIGN_PERSON_AND_ORGANIZATION_ASSIGNMENT ( #131, #225, ( #134 ) ) ;
#166 = DIRECTION ( 'NONE',  ( 0.0000000000000000000, 1.000000000000000000, 0.0000000000000000000 ) ) ;
#167 = DIRECTION ( 'NONE',  ( -3.491481338843133355E-15, 1.224646799147353207E-16, -1.000000000000000000 ) ) ;
#168 = PRODUCT_DEFINITION_FORMATION_WITH_SPECIFIED_SOURCE ( 'ANY', '', #210, .NOT_KNOWN. ) ;
#169 = CARTESIAN_POINT ( 'NONE',  ( 1.679402523983547333E-13, 3.308974596215556119, 48.10000000000000142 ) ) ;
#170 = ADVANCED_FACE ( 'NONE', ( #98 ), #190, .F. ) ;
#171 = CARTESIAN_POINT ( 'NONE',  ( 1.441981792942214013E-13, 2.999519565323704268E-32, 41.29999999999999716 ) ) ;
#172 = CARTESIAN_POINT ( 'NONE',  ( 1.661945117289331477E-13, -2.059735202318489549E-14, 47.60000000000000142 ) ) ;
#173 = ADVANCED_FACE ( 'NONE', ( #234 ), #40, .F. ) ;
#174 = AXIS2_PLACEMENT_3D ( 'NONE', #211, #230, #4 ) ;
#175 = CC_DESIGN_PERSON_AND_ORGANIZATION_ASSIGNMENT ( #91, #184, ( #87 ) ) ;
#176 = VERTEX_POINT ( 'NONE', #194 ) ;
#177 = COORDINATED_UNIVERSAL_TIME_OFFSET ( 1, 0, .AHEAD. ) ;
#178 = ADVANCED_FACE ( 'NONE', ( #13, #8 ), #82, .T. ) ;
#179 = APPROVAL_ROLE ( '' ) ;
#180 = AXIS2_PLACEMENT_3D ( 'NONE', #189, #77, #247 ) ;
#181 = ORIENTED_EDGE ( 'NONE', *, *, #89, .F. ) ;
#182 = MANIFOLD_SOLID_BREP ( 'Corps-Déplacer/Copier1[2]', #50 ) ;
#183 = EDGE_LOOP ( 'NONE', ( #242 ) ) ;
#184 = PERSON_AND_ORGANIZATION_ROLE ( 'classification_officer' ) ;
#185 = AXIS2_PLACEMENT_3D ( 'NONE', #99, #250, #7 ) ;
#186 = PERSON ( 'UNSPECIFIED', 'UNSPECIFIED', 'UNSPECIFIED', ('UNSPECIFIED'), ('UNSPECIFIED'), ('UNSPECIFIED') ) ;
#187 = ORIENTED_EDGE ( 'NONE', *, *, #92, .F. ) ;
#188 = CARTESIAN_POINT ( 'NONE',  ( 0.0000000000000000000, 0.0000000000000000000, 0.0000000000000000000 ) ) ;
#189 = CARTESIAN_POINT ( 'NONE',  ( 5.083181123339289718E-15, -1.782939929516086737E-16, 1.455880937064824687 ) ) ;
#190 = PLANE ( 'NONE',  #196 ) ;
#191 = DATE_AND_TIME ( #136, #239 ) ;
#192 = FACE_OUTER_BOUND ( 'NONE', #157, .T. ) ;
#193 = DIRECTION ( 'NONE',  ( 0.0000000000000000000, 1.000000000000000000, 0.0000000000000000000 ) ) ;
#194 = CARTESIAN_POINT ( 'NONE',  ( 1.721191753689222059E-13, -4.000000000000020428, 49.29689110867541757 ) ) ;
#195 = CARTESIAN_POINT ( 'NONE',  ( 3.533379114909250198E-13, 3.999999999999989786, 101.1999999999999886 ) ) ;
#196 = AXIS2_PLACEMENT_3D ( 'NONE', #60, #143, #78 ) ;
#197 = DIRECTION ( 'NONE',  ( -4.852736867747353806E-31, -1.000000000000000000, -1.365923996832128158E-16 ) ) ;
#198 = PERSON_AND_ORGANIZATION ( #186, #97 ) ;
#199 = CC_DESIGN_PERSON_AND_ORGANIZATION_ASSIGNMENT ( #125, #42, ( #210 ) ) ;
#200 = AXIS2_PLACEMENT_3D ( 'NONE', #101, #238, #46 ) ;
#201 = EDGE_LOOP ( 'NONE', ( #69 ) ) ;
#202 = EDGE_LOOP ( 'NONE', ( #34 ) ) ;
#203 = CC_DESIGN_APPROVAL ( #6, ( #168 ) ) ;
#204 = CYLINDRICAL_SURFACE ( 'NONE', #118, 3.999999999999998224 ) ;
#205 = AXIS2_PLACEMENT_3D ( 'NONE', #139, #58, #76 ) ;
#206 = CARTESIAN_POINT ( 'NONE',  ( 1.441981792942214013E-13, -1.787123190246924779E-14, 41.29999999999999716 ) ) ;
#207 = CARTESIAN_POINT ( 'NONE',  ( 3.533379114909250198E-13, -1.239342560737121245E-14, 101.1999999999999886 ) ) ;
#208 = CONICAL_SURFACE ( 'NONE', #249, 3.200000000000002842, 0.7853981633974420618 ) ;
#209 = FACE_OUTER_BOUND ( 'NONE', #54, .T. ) ;
#210 = PRODUCT ( '960178', '960178', '', ( #152 ) ) ;
#211 = CARTESIAN_POINT ( 'NONE',  ( 1.721191753689222059E-13, -2.133162646668069550E-14, 49.29689110867541757 ) ) ;
#212 = EDGE_CURVE ( 'NONE', #64, #64, #65, .T. ) ;
#213 = DIRECTION ( 'NONE',  ( -4.275831445896958607E-31, -1.000000000000000000, -1.224646799147353207E-16 ) ) ;
#214 = DIRECTION ( 'NONE',  ( 3.491481338843133355E-15, -1.224646799147353207E-16, 1.000000000000000000 ) ) ;
#215 = DIRECTION ( 'NONE',  ( 0.0000000000000000000, 1.000000000000000000, 0.0000000000000000000 ) ) ;
#216 = VERTEX_POINT ( 'NONE', #195 ) ;
#217 = CONICAL_SURFACE ( 'NONE', #180, 3.999999999999989786, 1.221730476396026610 ) ;
#218 = CARTESIAN_POINT ( 'NONE',  ( 1.679402523983547333E-13, -2.081371076292423421E-14, 48.10000000000000142 ) ) ;
#219 = EDGE_CURVE ( 'NONE', #26, #26, #113, .T. ) ;
#220 = PERSON_AND_ORGANIZATION ( #186, #97 ) ;
#221 = ORIENTED_EDGE ( 'NONE', *, *, #246, .T. ) ;
#222 = AXIS2_PLACEMENT_3D ( 'NONE', #172, #124, #104 ) ;
#223 = EDGE_LOOP ( 'NONE', ( #96 ) ) ;
#224 = CC_DESIGN_PERSON_AND_ORGANIZATION_ASSIGNMENT ( #127, #90, ( #168 ) ) ;
#225 = PERSON_AND_ORGANIZATION_ROLE ( 'creator' ) ;
#226 = DATE_AND_TIME ( #56, #45 ) ;
#227 = APPLICATION_CONTEXT ( 'configuration controlled 3d designs of mechanical parts and assemblies' ) ;
#228 = FACE_OUTER_BOUND ( 'NONE', #18, .T. ) ;
#229 = DIRECTION ( 'NONE',  ( 4.275831445896958607E-31, 1.000000000000000000, 1.224646799147353207E-16 ) ) ;
#230 = DIRECTION ( 'NONE',  ( 3.491481338843133355E-15, -4.327174794786742882E-16, 1.000000000000000000 ) ) ;
#231 = FACE_BOUND ( 'NONE', #155, .T. ) ;
#232 = AXIS2_PLACEMENT_3D ( 'NONE', #121, #151, #30 ) ;
#233 = APPROVAL ( #53, 'UNSPECIFIED' ) ;
#234 = FACE_OUTER_BOUND ( 'NONE', #183, .T. ) ;
#235 = PRODUCT_DEFINITION_SHAPE ( 'NONE', 'NONE',  #134 ) ;
#236 = DIRECTION ( 'NONE',  ( 0.0000000000000000000, 0.0000000000000000000, 1.000000000000000000 ) ) ;
#237 = CIRCLE ( 'NONE', #31, 3.175000000000007816 ) ;
#238 = DIRECTION ( 'NONE',  ( -3.491481338843133355E-15, 4.327174794786742882E-16, -1.000000000000000000 ) ) ;
#239 = LOCAL_TIME ( 14, 57, 11.00000000000000000, #160 ) ;
#240 = APPROVAL_DATE_TIME ( #109, #6 ) ;
#241 = CIRCLE ( 'NONE', #27, 3.175000000000007816 ) ;
#242 = ORIENTED_EDGE ( 'NONE', *, *, #92, .T. ) ;
#243 = APPROVAL_PERSON_ORGANIZATION ( #198, #6, #179 ) ;
#244 = CALENDAR_DATE ( 2021, 13, 10 ) ;
#245 = ORIENTED_EDGE ( 'NONE', *, *, #49, .T. ) ;
#246 = EDGE_CURVE ( 'NONE', #10, #10, #237, .T. ) ;
#247 = DIRECTION ( 'NONE',  ( -3.851859888774481340E-31, -1.000000000000000000, -1.084202172485507146E-16 ) ) ;
#248 = FACE_OUTER_BOUND ( 'NONE', #223, .T. ) ;
#249 = AXIS2_PLACEMENT_3D ( 'NONE', #253, #167, #193 ) ;
#250 = DIRECTION ( 'NONE',  ( -3.491481338843133355E-15, 1.224646799147353207E-16, -1.000000000000000000 ) ) ;
#251 = FACE_OUTER_BOUND ( 'NONE', #120, .T. ) ;
#252 = APPROVAL ( #1, 'UNSPECIFIED' ) ;
#253 = CARTESIAN_POINT ( 'NONE',  ( 3.561310965619995770E-13, -1.249139735130300089E-14, 102.0000000000000000 ) ) ;
#254 = CC_DESIGN_APPROVAL ( #233, ( #134 ) ) ;
#255 = CARTESIAN_POINT ( 'NONE',  ( 4.034775016650580777E-15, -3.175000000000007816, 1.155605493795210048 ) ) ;
#256 = VERTEX_POINT ( 'NONE', #12 ) ;
#257 = CC_DESIGN_SECURITY_CLASSIFICATION ( #87, ( #168 ) ) ;
#258 = APPLICATION_CONTEXT ( 'configuration controlled 3d designs of mechanical parts and assemblies' ) ;
#259 = CARTESIAN_POINT ( 'NONE',  ( 1.441981792942214013E-13, -3.175000000000025580, 41.29999999999999716 ) ) ;
#260 = ADVANCED_FACE ( 'NONE', ( #102 ), #103, .T. ) ;
#261 = CALENDAR_DATE ( 2021, 13, 10 ) ;
#262 = APPROVAL_DATE_TIME ( #226, #233 ) ;
#263 = EDGE_LOOP ( 'NONE', ( #181 ) ) ;
ENDSEC;
END-ISO-10303-21;
