ISO-10303-21;
HEADER;
FILE_DESCRIPTION (( 'STEP AP203' ),
    '1' );
FILE_NAME ('960177.step',
    '2021-10-13T12:57:10',
    ( '' ),
    ( '' ),
    'SwSTEP 2.0',
    'SolidWorks 2019',
    '' );
FILE_SCHEMA (( 'CONFIG_CONTROL_DESIGN' ));
ENDSEC;

DATA;
#1 = COORDINATED_UNIVERSAL_TIME_OFFSET ( 1, 0, .AHEAD. ) ;
#2 = EDGE_LOOP ( 'NONE', ( #205 ) ) ;
#3 = CLOSED_SHELL ( 'NONE', ( #33, #246, #40, #194, #146, #95, #38 ) ) ;
#4 = COORDINATED_UNIVERSAL_TIME_OFFSET ( 1, 0, .AHEAD. ) ;
#5 = EDGE_LOOP ( 'NONE', ( #110 ) ) ;
#6 = PRODUCT_DEFINITION_SHAPE ( 'NONE', 'NONE',  #195 ) ;
#7 = APPLICATION_CONTEXT ( 'configuration controlled 3d designs of mechanical parts and assemblies' ) ;
#8 = PLANE ( 'NONE',  #177 ) ;
#9 = APPROVAL_PERSON_ORGANIZATION ( #64, #12, #120 ) ;
#10 = CARTESIAN_POINT ( 'NONE',  ( 1.431507348925684802E-13, -1.774141665862564897E-14, 41.00000000000000000 ) ) ;
#11 = DIRECTION ( 'NONE',  ( 4.275831445896958607E-31, 1.000000000000000000, 1.224646799147353207E-16 ) ) ;
#12 = APPROVAL ( #104, 'UNSPECIFIED' ) ;
#13 = FACE_OUTER_BOUND ( 'NONE', #63, .T. ) ;
#14 = UNCERTAINTY_MEASURE_WITH_UNIT (LENGTH_MEASURE( 1.000000000000000082E-05 ), #230, 'distance_accuracy_value', 'NONE');
#15 = CARTESIAN_POINT ( 'NONE',  ( 3.561310965619995770E-13, -1.249139735130300089E-14, 102.0000000000000000 ) ) ;
#16 = AXIS2_PLACEMENT_3D ( 'NONE', #232, #99, #56 ) ;
#17 = CARTESIAN_POINT ( 'NONE',  ( 3.561310965619995770E-13, 3.199999999999989964, 102.0000000000000000 ) ) ;
#18 = CARTESIAN_POINT ( 'NONE',  ( 4.003005134629709901E-15, -1.404065194493925005E-16, 1.146506237938554884 ) ) ;
#19 = AXIS2_PLACEMENT_3D ( 'NONE', #249, #52, #171 ) ;
#20 = CARTESIAN_POINT ( 'NONE',  ( 1.651470673272801762E-13, 3.149999999999994138, 47.29999999999999716 ) ) ;
#21 = APPROVAL_ROLE ( '' ) ;
#22 = AXIS2_PLACEMENT_3D ( 'NONE', #88, #147, #46 ) ;
#23 = MANIFOLD_SOLID_BREP ( 'Corps-Déplacer/Copier1[2]', #215 ) ;
#24 = EDGE_LOOP ( 'NONE', ( #163 ) ) ;
#25 = DATE_AND_TIME ( #105, #152 ) ;
#26 = AXIS2_PLACEMENT_3D ( 'NONE', #151, #72, #115 ) ;
#27 = DIRECTION ( 'NONE',  ( 1.510825004591027855E-30, 1.000000000000000000, 4.327174794786742882E-16 ) ) ;
#28 = EDGE_CURVE ( 'NONE', #259, #259, #240, .T. ) ;
#29 = DIRECTION ( 'NONE',  ( 0.0000000000000000000, 1.000000000000000000, 0.0000000000000000000 ) ) ;
#30 = CARTESIAN_POINT ( 'NONE',  ( 1.431507348925684802E-13, 2.999519565323704268E-32, 41.00000000000000000 ) ) ;
#31 = CIRCLE ( 'NONE', #236, 3.150000000000007017 ) ;
#32 = PLANE ( 'NONE',  #19 ) ;
#33 = ADVANCED_FACE ( 'NONE', ( #66, #113 ), #49, .T. ) ;
#34 = DIRECTION ( 'NONE',  ( 0.0000000000000000000, -1.000000000000000000, 0.0000000000000000000 ) ) ;
#35 = FACE_OUTER_BOUND ( 'NONE', #109, .T. ) ;
#36 = AXIS2_PLACEMENT_3D ( 'NONE', #250, #71, #128 ) ;
#37 = VERTEX_POINT ( 'NONE', #174 ) ;
#38 = ADVANCED_FACE ( 'NONE', ( #185 ), #184, .F. ) ;
#39 = DIRECTION ( 'NONE',  ( 0.0000000000000000000, -1.000000000000000000, 0.0000000000000000000 ) ) ;
#40 = ADVANCED_FACE ( 'NONE', ( #133 ), #8, .F. ) ;
#41 = CALENDAR_DATE ( 2021, 13, 10 ) ;
#42 = APPROVAL_DATE_TIME ( #25, #12 ) ;
#43 = CC_DESIGN_APPROVAL ( #12, ( #111 ) ) ;
#44 = EDGE_LOOP ( 'NONE', ( #123 ) ) ;
#45 = PERSON_AND_ORGANIZATION ( #141, #256 ) ;
#46 = DIRECTION ( 'NONE',  ( -3.851859888774481340E-31, -1.000000000000000000, -1.084202172485507146E-16 ) ) ;
#47 = APPROVAL ( #262, 'UNSPECIFIED' ) ;
#48 = ORIENTED_EDGE ( 'NONE', *, *, #28, .T. ) ;
#49 = CYLINDRICAL_SURFACE ( 'NONE', #142, 3.999999999999998224 ) ;
#50 = DIRECTION ( 'NONE',  ( -3.491481338843133355E-15, 4.327174794786742882E-16, -1.000000000000000000 ) ) ;
#51 = CIRCLE ( 'NONE', #138, 4.000000000000001776 ) ;
#52 = DIRECTION ( 'NONE',  ( 3.491481338843133355E-15, -1.224646799147353207E-16, 1.000000000000000000 ) ) ;
#53 = CARTESIAN_POINT ( 'NONE',  ( 1.668928079967017618E-13, 3.283974596215556208, 47.79999999999999716 ) ) ;
#54 = APPLICATION_CONTEXT ( 'configuration controlled 3d designs of mechanical parts and assemblies' ) ;
#55 = APPROVAL_PERSON_ORGANIZATION ( #242, #47, #21 ) ;
#56 = DIRECTION ( 'NONE',  ( 0.0000000000000000000, 1.000000000000000000, 0.0000000000000000000 ) ) ;
#57 = COORDINATED_UNIVERSAL_TIME_OFFSET ( 1, 0, .AHEAD. ) ;
#58 = AXIS2_PLACEMENT_3D ( 'NONE', #193, #214, #34 ) ;
#59 = LOCAL_TIME ( 14, 57, 10.00000000000000000, #1 ) ;
#60 = APPLICATION_PROTOCOL_DEFINITION ( 'international standard', 'config_control_design', 1994, #54 ) ;
#61 = EDGE_LOOP ( 'NONE', ( #201 ) ) ;
#62 = APPROVAL_DATE_TIME ( #217, #136 ) ;
#63 = EDGE_LOOP ( 'NONE', ( #158 ) ) ;
#64 = PERSON_AND_ORGANIZATION ( #141, #256 ) ;
#65 = DIRECTION ( 'NONE',  ( 1.510825004591027679E-30, 1.000000000000000000, 4.327174794786742882E-16 ) ) ;
#66 = FACE_OUTER_BOUND ( 'NONE', #238, .T. ) ;
#67 = ADVANCED_FACE ( 'NONE', ( #190 ), #216, .T. ) ;
#68 = DIRECTION ( 'NONE',  ( 3.491481338843133355E-15, -1.224646799147353207E-16, 1.000000000000000000 ) ) ;
#69 = DIRECTION ( 'NONE',  ( 4.275831445896958607E-31, 1.000000000000000000, 1.224646799147353207E-16 ) ) ;
#70 = AXIS2_PLACEMENT_3D ( 'NONE', #131, #167, #65 ) ;
#71 = DIRECTION ( 'NONE',  ( 3.491481338843133355E-15, -4.327174794786742882E-16, 1.000000000000000000 ) ) ;
#72 = DIRECTION ( 'NONE',  ( -3.491481338843133355E-15, 4.327174794786742882E-16, -1.000000000000000000 ) ) ;
#73 =( NAMED_UNIT ( * ) PLANE_ANGLE_UNIT ( ) SI_UNIT ( $, .RADIAN. ) );
#74 = LOCAL_TIME ( 14, 57, 10.00000000000000000, #4 ) ;
#75 = VERTEX_POINT ( 'NONE', #53 ) ;
#76 = EDGE_CURVE ( 'NONE', #75, #75, #132, .T. ) ;
#77 = VERTEX_POINT ( 'NONE', #178 ) ;
#78 = APPLICATION_PROTOCOL_DEFINITION ( 'international standard', 'config_control_design', 1994, #7 ) ;
#79 = COORDINATED_UNIVERSAL_TIME_OFFSET ( 1, 0, .AHEAD. ) ;
#80 = AXIS2_PLACEMENT_3D ( 'NONE', #92, #50, #187 ) ;
#81 = SHAPE_DEFINITION_REPRESENTATION ( #6, #207 ) ;
#82 = ADVANCED_FACE ( 'NONE', ( #170, #150 ), #244, .T. ) ;
#83 = PERSON_AND_ORGANIZATION_ROLE ( 'creator' ) ;
#84 = EDGE_LOOP ( 'NONE', ( #48 ) ) ;
#85 = DATE_AND_TIME ( #260, #198 ) ;
#86 = EDGE_LOOP ( 'NONE', ( #112 ) ) ;
#87 = DIRECTION ( 'NONE',  ( -3.491481338843133355E-15, 4.327174794786742882E-16, -1.000000000000000000 ) ) ;
#88 = CARTESIAN_POINT ( 'NONE',  ( 5.083181123339289718E-15, -1.782939929516086737E-16, 1.455880937064824687 ) ) ;
#89 = PRODUCT_RELATED_PRODUCT_CATEGORY ( 'detail', '', ( #248 ) ) ;
#90 = AXIS2_PLACEMENT_3D ( 'NONE', #30, #68, #189 ) ;
#91 = DIRECTION ( 'NONE',  ( -3.491481338843133355E-15, 1.224646799147353207E-16, -1.000000000000000000 ) ) ;
#92 = CARTESIAN_POINT ( 'NONE',  ( 1.668928079967017618E-13, -2.068389551908062908E-14, 47.79999999999999716 ) ) ;
#93 = CARTESIAN_POINT ( 'NONE',  ( 0.0000000000000000000, 0.0000000000000000000, 0.0000000000000000000 ) ) ;
#94 = CARTESIAN_POINT ( 'NONE',  ( 1.431507348925684802E-13, -3.150000000000024780, 41.00000000000000000 ) ) ;
#95 = ADVANCED_FACE ( 'NONE', ( #245, #208 ), #220, .F. ) ;
#96 = CYLINDRICAL_SURFACE ( 'NONE', #26, 3.150000000000007017 ) ;
#97 = EDGE_CURVE ( 'NONE', #233, #233, #169, .T. ) ;
#98 = CIRCLE ( 'NONE', #192, 3.150000000000007017 ) ;
#99 = DIRECTION ( 'NONE',  ( -3.491481338843133355E-15, 4.327174794786742882E-16, -1.000000000000000000 ) ) ;
#100 = DIRECTION ( 'NONE',  ( 0.0000000000000000000, 1.000000000000000000, 0.0000000000000000000 ) ) ;
#101 = PERSON_AND_ORGANIZATION ( #141, #256 ) ;
#102 = SECURITY_CLASSIFICATION_LEVEL ( 'unclassified' ) ;
#103 = ADVANCED_FACE ( 'NONE', ( #229 ), #32, .T. ) ;
#104 = APPROVAL_STATUS ( 'not_yet_approved' ) ;
#105 = CALENDAR_DATE ( 2021, 13, 10 ) ;
#106 = ORIENTED_EDGE ( 'NONE', *, *, #76, .T. ) ;
#107 = AXIS2_PLACEMENT_3D ( 'NONE', #10, #91, #149 ) ;
#108 = CARTESIAN_POINT ( 'NONE',  ( 3.533379114909250198E-13, -1.239342560737121245E-14, 101.1999999999999886 ) ) ;
#109 = EDGE_LOOP ( 'NONE', ( #243 ) ) ;
#110 = ORIENTED_EDGE ( 'NONE', *, *, #76, .F. ) ;
#111 = PRODUCT_DEFINITION_FORMATION_WITH_SPECIFIED_SOURCE ( 'ANY', '', #248, .NOT_KNOWN. ) ;
#112 = ORIENTED_EDGE ( 'NONE', *, *, #97, .F. ) ;
#113 = FACE_OUTER_BOUND ( 'NONE', #263, .T. ) ;
#114 = DIRECTION ( 'NONE',  ( -3.491481338843133355E-15, 1.224646799147353207E-16, -1.000000000000000000 ) ) ;
#115 = DIRECTION ( 'NONE',  ( 1.510825004591027679E-30, 1.000000000000000000, 4.327174794786742882E-16 ) ) ;
#116 =( NAMED_UNIT ( * ) SI_UNIT ( $, .STERADIAN. ) SOLID_ANGLE_UNIT ( ) );
#117 = CC_DESIGN_PERSON_AND_ORGANIZATION_ASSIGNMENT ( #45, #162, ( #111 ) ) ;
#118 = DIRECTION ( 'NONE',  ( -3.491481338843133355E-15, 1.224646799147353207E-16, -1.000000000000000000 ) ) ;
#119 = CARTESIAN_POINT ( 'NONE',  ( 1.431507348925684802E-13, -3.150000000000024780, 41.00000000000000000 ) ) ;
#120 = APPROVAL_ROLE ( '' ) ;
#121 = EDGE_LOOP ( 'NONE', ( #222 ) ) ;
#122 = PERSON_AND_ORGANIZATION ( #141, #256 ) ;
#123 = ORIENTED_EDGE ( 'NONE', *, *, #175, .F. ) ;
#124 = LOCAL_TIME ( 14, 57, 10.00000000000000000, #145 ) ;
#125 = ORIENTED_EDGE ( 'NONE', *, *, #227, .T. ) ;
#126 = CC_DESIGN_PERSON_AND_ORGANIZATION_ASSIGNMENT ( #122, #196, ( #188 ) ) ;
#127 = PERSON_AND_ORGANIZATION ( #141, #256 ) ;
#128 = DIRECTION ( 'NONE',  ( 0.0000000000000000000, -1.000000000000000000, 0.0000000000000000000 ) ) ;
#129 = CIRCLE ( 'NONE', #16, 3.150000000000014122 ) ;
#130 = CARTESIAN_POINT ( 'NONE',  ( 3.561310965619995770E-13, -1.249139735130300089E-14, 102.0000000000000000 ) ) ;
#131 = CARTESIAN_POINT ( 'NONE',  ( 0.0000000000000000000, 0.0000000000000000000, 0.0000000000000000000 ) ) ;
#132 = CIRCLE ( 'NONE', #80, 3.283974596215577080 ) ;
#133 = FACE_OUTER_BOUND ( 'NONE', #121, .T. ) ;
#134 = FACE_BOUND ( 'NONE', #84, .T. ) ;
#135 = DIRECTION ( 'NONE',  ( -3.491481338843133355E-15, 1.224646799147353207E-16, -1.000000000000000000 ) ) ;
#136 = APPROVAL ( #181, 'UNSPECIFIED' ) ;
#137 = FACE_OUTER_BOUND ( 'NONE', #44, .T. ) ;
#138 = AXIS2_PLACEMENT_3D ( 'NONE', #108, #114, #100 ) ;
#139 = CC_DESIGN_DATE_AND_TIME_ASSIGNMENT ( #183, #159, ( #188 ) ) ;
#140 = APPROVAL_DATE_TIME ( #85, #47 ) ;
#141 = PERSON ( 'UNSPECIFIED', 'UNSPECIFIED', 'UNSPECIFIED', ('UNSPECIFIED'), ('UNSPECIFIED'), ('UNSPECIFIED') ) ;
#142 = AXIS2_PLACEMENT_3D ( 'NONE', #93, #228, #11 ) ;
#143 = ORIENTED_EDGE ( 'NONE', *, *, #175, .T. ) ;
#144 = CC_DESIGN_APPROVAL ( #136, ( #188 ) ) ;
#145 = COORDINATED_UNIVERSAL_TIME_OFFSET ( 1, 0, .AHEAD. ) ;
#146 = ADVANCED_FACE ( 'NONE', ( #210, #13 ), #252, .T. ) ;
#147 = DIRECTION ( 'NONE',  ( 3.491481338843133355E-15, -1.224646799147353207E-16, 1.000000000000000000 ) ) ;
#148 = EDGE_LOOP ( 'NONE', ( #224 ) ) ;
#149 = DIRECTION ( 'NONE',  ( 0.0000000000000000000, -1.000000000000000000, 0.0000000000000000000 ) ) ;
#150 = FACE_OUTER_BOUND ( 'NONE', #2, .T. ) ;
#151 = CARTESIAN_POINT ( 'NONE',  ( 0.0000000000000000000, 0.0000000000000000000, 0.0000000000000000000 ) ) ;
#152 = LOCAL_TIME ( 14, 57, 10.00000000000000000, #57 ) ;
#153 = DIRECTION ( 'NONE',  ( 0.0000000000000000000, 0.0000000000000000000, 1.000000000000000000 ) ) ;
#154 = VERTEX_POINT ( 'NONE', #119 ) ;
#155 = PERSON_AND_ORGANIZATION ( #141, #256 ) ;
#156 =( GEOMETRIC_REPRESENTATION_CONTEXT ( 3 ) GLOBAL_UNCERTAINTY_ASSIGNED_CONTEXT ( ( #14 ) ) GLOBAL_UNIT_ASSIGNED_CONTEXT ( ( #230, #73, #116 ) ) REPRESENTATION_CONTEXT ( 'NONE', 'WORKASPACE' ) );
#157 = DATE_TIME_ROLE ( 'creation_date' ) ;
#158 = ORIENTED_EDGE ( 'NONE', *, *, #206, .F. ) ;
#159 = DATE_TIME_ROLE ( 'classification_date' ) ;
#160 = EDGE_LOOP ( 'NONE', ( #106 ) ) ;
#161 = CC_DESIGN_DATE_AND_TIME_ASSIGNMENT ( #218, #157, ( #195 ) ) ;
#162 = PERSON_AND_ORGANIZATION_ROLE ( 'creator' ) ;
#163 = ORIENTED_EDGE ( 'NONE', *, *, #97, .T. ) ;
#164 = AXIS2_PLACEMENT_3D ( 'NONE', #130, #204, #29 ) ;
#165 = EDGE_LOOP ( 'NONE', ( #197 ) ) ;
#166 = DIRECTION ( 'NONE',  ( -3.491481338843133355E-15, 1.224646799147353207E-16, -1.000000000000000000 ) ) ;
#167 = DIRECTION ( 'NONE',  ( -3.491481338843133355E-15, 4.327174794786742882E-16, -1.000000000000000000 ) ) ;
#168 = AXIS2_PLACEMENT_3D ( 'NONE', #176, #153, #255 ) ;
#169 = CIRCLE ( 'NONE', #107, 3.150000000000007017 ) ;
#170 = FACE_OUTER_BOUND ( 'NONE', #24, .T. ) ;
#171 = DIRECTION ( 'NONE',  ( -4.275831445896958607E-31, -1.000000000000000000, -1.224646799147353207E-16 ) ) ;
#172 = CIRCLE ( 'NONE', #58, 3.999999999999998224 ) ;
#173 = FACE_OUTER_BOUND ( 'NONE', #148, .T. ) ;
#174 = CARTESIAN_POINT ( 'NONE',  ( 3.533379114909250198E-13, 3.999999999999989786, 101.1999999999999886 ) ) ;
#175 = EDGE_CURVE ( 'NONE', #37, #37, #51, .T. ) ;
#176 = CARTESIAN_POINT ( 'NONE',  ( 0.0000000000000000000, 0.0000000000000000000, 0.0000000000000000000 ) ) ;
#177 = AXIS2_PLACEMENT_3D ( 'NONE', #203, #166, #69 ) ;
#178 = CARTESIAN_POINT ( 'NONE',  ( 1.712229165440831032E-13, -4.000000000000019540, 49.04019237886463145 ) ) ;
#179 = MECHANICAL_CONTEXT ( 'NONE', #7, 'mechanical' ) ;
#180 = CALENDAR_DATE ( 2021, 13, 10 ) ;
#181 = APPROVAL_STATUS ( 'not_yet_approved' ) ;
#182 = EDGE_CURVE ( 'NONE', #154, #154, #98, .T. ) ;
#183 = DATE_AND_TIME ( #180, #74 ) ;
#184 = PLANE ( 'NONE',  #90 ) ;
#185 = FACE_OUTER_BOUND ( 'NONE', #61, .T. ) ;
#186 = MANIFOLD_SOLID_BREP ( 'Corps-Déplacer/Copier1[1]', #3 ) ;
#187 = DIRECTION ( 'NONE',  ( 0.0000000000000000000, 1.000000000000000000, 0.0000000000000000000 ) ) ;
#188 = SECURITY_CLASSIFICATION ( '', '', #102 ) ;
#189 = DIRECTION ( 'NONE',  ( -4.275831445896958607E-31, -1.000000000000000000, -1.224646799147353207E-16 ) ) ;
#190 = FACE_OUTER_BOUND ( 'NONE', #226, .T. ) ;
#191 = DIRECTION ( 'NONE',  ( -4.891250652412016317E-31, -1.000000000000000000, -1.376764663473653259E-16 ) ) ;
#192 = AXIS2_PLACEMENT_3D ( 'NONE', #211, #135, #39 ) ;
#193 = CARTESIAN_POINT ( 'NONE',  ( 1.712229165440831032E-13, -2.122054843933159731E-14, 49.04019237886463145 ) ) ;
#194 = ADVANCED_FACE ( 'NONE', ( #173, #35 ), #96, .T. ) ;
#195 = PRODUCT_DEFINITION ( 'UNKNOWN', '', #111, #257 ) ;
#196 = PERSON_AND_ORGANIZATION_ROLE ( 'classification_officer' ) ;
#197 = ORIENTED_EDGE ( 'NONE', *, *, #239, .F. ) ;
#198 = LOCAL_TIME ( 14, 57, 10.00000000000000000, #79 ) ;
#199 = PERSON_AND_ORGANIZATION ( #141, #256 ) ;
#200 = APPROVAL_ROLE ( '' ) ;
#201 = ORIENTED_EDGE ( 'NONE', *, *, #182, .T. ) ;
#202 = ORIENTED_EDGE ( 'NONE', *, *, #206, .T. ) ;
#203 = CARTESIAN_POINT ( 'NONE',  ( 3.561310965619995770E-13, 2.399615652258955477E-32, 102.0000000000000000 ) ) ;
#204 = DIRECTION ( 'NONE',  ( -3.491481338843133355E-15, 1.224646799147353207E-16, -1.000000000000000000 ) ) ;
#205 = ORIENTED_EDGE ( 'NONE', *, *, #227, .F. ) ;
#206 = EDGE_CURVE ( 'NONE', #77, #77, #172, .T. ) ;
#207 = ADVANCED_BREP_SHAPE_REPRESENTATION ( '960177', ( #186, #23, #168 ), #156 ) ;
#208 = FACE_OUTER_BOUND ( 'NONE', #160, .T. ) ;
#209 = APPROVAL_PERSON_ORGANIZATION ( #155, #136, #200 ) ;
#210 = FACE_BOUND ( 'NONE', #5, .T. ) ;
#211 = CARTESIAN_POINT ( 'NONE',  ( 1.431507348925684802E-13, -1.774141665862564897E-14, 41.00000000000000000 ) ) ;
#212 = AXIS2_PLACEMENT_3D ( 'NONE', #15, #118, #253 ) ;
#213 = VERTEX_POINT ( 'NONE', #235 ) ;
#214 = DIRECTION ( 'NONE',  ( 3.491481338843133355E-15, -4.327174794786742882E-16, 1.000000000000000000 ) ) ;
#215 = CLOSED_SHELL ( 'NONE', ( #67, #82, #103 ) ) ;
#216 = CONICAL_SURFACE ( 'NONE', #22, 3.999999999999989786, 1.221730476396026610 ) ;
#217 = DATE_AND_TIME ( #41, #59 ) ;
#218 = DATE_AND_TIME ( #237, #124 ) ;
#219 = PERSON_AND_ORGANIZATION_ROLE ( 'design_owner' ) ;
#220 = TOROIDAL_SURFACE ( 'NONE', #261, 4.150000000000014566, 0.9999999999999995559 ) ;
#221 = PERSON_AND_ORGANIZATION_ROLE ( 'design_supplier' ) ;
#222 = ORIENTED_EDGE ( 'NONE', *, *, #28, .F. ) ;
#223 = CC_DESIGN_PERSON_AND_ORGANIZATION_ASSIGNMENT ( #199, #221, ( #111 ) ) ;
#224 = ORIENTED_EDGE ( 'NONE', *, *, #239, .T. ) ;
#225 = CONICAL_SURFACE ( 'NONE', #212, 3.200000000000002842, 0.7853981633974420618 ) ;
#226 = EDGE_LOOP ( 'NONE', ( #125 ) ) ;
#227 = EDGE_CURVE ( 'NONE', #213, #213, #31, .T. ) ;
#228 = DIRECTION ( 'NONE',  ( -3.491481338843133355E-15, 1.224646799147353207E-16, -1.000000000000000000 ) ) ;
#229 = FACE_OUTER_BOUND ( 'NONE', #86, .T. ) ;
#230 =( LENGTH_UNIT ( ) NAMED_UNIT ( * ) SI_UNIT ( .MILLI., .METRE. ) );
#231 = CC_DESIGN_PERSON_AND_ORGANIZATION_ASSIGNMENT ( #101, #219, ( #248 ) ) ;
#232 = CARTESIAN_POINT ( 'NONE',  ( 1.651470673272801762E-13, -2.046753677934129036E-14, 47.29999999999999716 ) ) ;
#233 = VERTEX_POINT ( 'NONE', #94 ) ;
#234 = CC_DESIGN_APPROVAL ( #47, ( #195 ) ) ;
#235 = CARTESIAN_POINT ( 'NONE',  ( 4.003005134629708323E-15, -3.150000000000007017, 1.146506237938554440 ) ) ;
#236 = AXIS2_PLACEMENT_3D ( 'NONE', #18, #258, #191 ) ;
#237 = CALENDAR_DATE ( 2021, 13, 10 ) ;
#238 = EDGE_LOOP ( 'NONE', ( #202 ) ) ;
#239 = EDGE_CURVE ( 'NONE', #254, #254, #129, .T. ) ;
#240 = CIRCLE ( 'NONE', #164, 3.200000000000002842 ) ;
#241 = CC_DESIGN_SECURITY_CLASSIFICATION ( #188, ( #111 ) ) ;
#242 = PERSON_AND_ORGANIZATION ( #141, #256 ) ;
#243 = ORIENTED_EDGE ( 'NONE', *, *, #182, .F. ) ;
#244 = CYLINDRICAL_SURFACE ( 'NONE', #70, 3.150000000000007017 ) ;
#245 = FACE_OUTER_BOUND ( 'NONE', #165, .T. ) ;
#246 = ADVANCED_FACE ( 'NONE', ( #137, #134 ), #225, .T. ) ;
#247 = CARTESIAN_POINT ( 'NONE',  ( 1.651470673272801762E-13, -2.081668171172168513E-14, 47.29999999999999716 ) ) ;
#248 = PRODUCT ( '960177', '960177', '', ( #179 ) ) ;
#249 = CARTESIAN_POINT ( 'NONE',  ( 1.431507348925684802E-13, 2.999519565323704268E-32, 41.00000000000000000 ) ) ;
#250 = CARTESIAN_POINT ( 'NONE',  ( 1.742466280803606580E-13, -2.159529276922171398E-14, 49.90621778264910091 ) ) ;
#251 = CC_DESIGN_PERSON_AND_ORGANIZATION_ASSIGNMENT ( #127, #83, ( #195 ) ) ;
#252 = CONICAL_SURFACE ( 'NONE', #36, 4.500000000000016875, 0.5235987755982995928 ) ;
#253 = DIRECTION ( 'NONE',  ( 0.0000000000000000000, 1.000000000000000000, 0.0000000000000000000 ) ) ;
#254 = VERTEX_POINT ( 'NONE', #20 ) ;
#255 = DIRECTION ( 'NONE',  ( 1.000000000000000000, 0.0000000000000000000, 0.0000000000000000000 ) ) ;
#256 = ORGANIZATION ( 'UNSPECIFIED', 'UNSPECIFIED', '' ) ;
#257 = DESIGN_CONTEXT ( 'detailed design', #54, 'design' ) ;
#258 = DIRECTION ( 'NONE',  ( -3.491481338843133355E-15, 1.224646799147353207E-16, -1.000000000000000000 ) ) ;
#259 = VERTEX_POINT ( 'NONE', #17 ) ;
#260 = CALENDAR_DATE ( 2021, 13, 10 ) ;
#261 = AXIS2_PLACEMENT_3D ( 'NONE', #247, #87, #27 ) ;
#262 = APPROVAL_STATUS ( 'not_yet_approved' ) ;
#263 = EDGE_LOOP ( 'NONE', ( #143 ) ) ;
ENDSEC;
END-ISO-10303-21;
