ISO-10303-21;
HEADER;
FILE_DESCRIPTION (( 'STEP AP203' ),
    '1' );
FILE_NAME ('960176.step',
    '2021-10-13T12:57:10',
    ( '' ),
    ( '' ),
    'SwSTEP 2.0',
    'SolidWorks 2019',
    '' );
FILE_SCHEMA (( 'CONFIG_CONTROL_DESIGN' ));
ENDSEC;

DATA;
#1 = DIRECTION ( 'NONE',  ( 0.0000000000000000000, 0.0000000000000000000, 1.000000000000000000 ) ) ;
#2 = AXIS2_PLACEMENT_3D ( 'NONE', #65, #149, #89 ) ;
#3 = EDGE_LOOP ( 'NONE', ( #161 ) ) ;
#4 = FACE_OUTER_BOUND ( 'NONE', #187, .T. ) ;
#5 = EDGE_CURVE ( 'NONE', #253, #253, #52, .T. ) ;
#6 = DIRECTION ( 'NONE',  ( -3.491481338843133355E-15, 1.224646799147353207E-16, -1.000000000000000000 ) ) ;
#7 = ORIENTED_EDGE ( 'NONE', *, *, #88, .T. ) ;
#8 = FACE_OUTER_BOUND ( 'NONE', #86, .T. ) ;
#9 = CARTESIAN_POINT ( 'NONE',  ( 3.533379114909250198E-13, 3.999999999999989786, 101.1999999999999886 ) ) ;
#10 = DIRECTION ( 'NONE',  ( -3.491481338843133355E-15, 1.224646799147353207E-16, -1.000000000000000000 ) ) ;
#11 = DESIGN_CONTEXT ( 'detailed design', #55, 'design' ) ;
#12 = AXIS2_PLACEMENT_3D ( 'NONE', #199, #13, #49 ) ;
#13 = DIRECTION ( 'NONE',  ( -3.491481338843133355E-15, 1.224646799147353207E-16, -1.000000000000000000 ) ) ;
#14 = EDGE_CURVE ( 'NONE', #235, #235, #32, .T. ) ;
#15 = DIRECTION ( 'NONE',  ( -4.275831445896958607E-31, -1.000000000000000000, -1.224646799147353207E-16 ) ) ;
#16 = FACE_OUTER_BOUND ( 'NONE', #59, .T. ) ;
#17 = CONICAL_SURFACE ( 'NONE', #12, 3.200000000000002842, 0.7853981633974420618 ) ;
#18 = APPROVAL_ROLE ( '' ) ;
#19 = APPROVAL_PERSON_ORGANIZATION ( #261, #33, #82 ) ;
#20 = DATE_TIME_ROLE ( 'classification_date' ) ;
#21 = EDGE_CURVE ( 'NONE', #233, #233, #218, .T. ) ;
#22 = CALENDAR_DATE ( 2021, 13, 10 ) ;
#23 = FACE_OUTER_BOUND ( 'NONE', #259, .T. ) ;
#24 = LOCAL_TIME ( 14, 57, 10.00000000000000000, #57 ) ;
#25 = EDGE_CURVE ( 'NONE', #31, #31, #154, .T. ) ;
#26 = ORIENTED_EDGE ( 'NONE', *, *, #113, .T. ) ;
#27 = DIRECTION ( 'NONE',  ( 0.0000000000000000000, -1.000000000000000000, 0.0000000000000000000 ) ) ;
#28 = CARTESIAN_POINT ( 'NONE',  ( 1.623538822562056947E-13, -1.994931997373328159E-14, 46.50000000000000000 ) ) ;
#29 = DIRECTION ( 'NONE',  ( 1.510825004591027855E-30, 1.000000000000000000, 4.327174794786742882E-16 ) ) ;
#30 = PLANE ( 'NONE',  #44 ) ;
#31 = VERTEX_POINT ( 'NONE', #142 ) ;
#32 = CIRCLE ( 'NONE', #150, 4.000000000000001776 ) ;
#33 = APPROVAL ( #61, 'UNSPECIFIED' ) ;
#34 = CARTESIAN_POINT ( 'NONE',  ( 0.0000000000000000000, 0.0000000000000000000, 0.0000000000000000000 ) ) ;
#35 = CARTESIAN_POINT ( 'NONE',  ( 1.640996229256272803E-13, 3.233974596215555497, 47.00000000000000000 ) ) ;
#36 = PERSON_AND_ORGANIZATION_ROLE ( 'design_owner' ) ;
#37 = PERSON_AND_ORGANIZATION ( #262, #54 ) ;
#38 = CARTESIAN_POINT ( 'NONE',  ( 0.0000000000000000000, 0.0000000000000000000, 0.0000000000000000000 ) ) ;
#39 = SECURITY_CLASSIFICATION_LEVEL ( 'unclassified' ) ;
#40 = APPLICATION_CONTEXT ( 'configuration controlled 3d designs of mechanical parts and assemblies' ) ;
#41 = AXIS2_PLACEMENT_3D ( 'NONE', #116, #211, #194 ) ;
#42 = DATE_AND_TIME ( #22, #24 ) ;
#43 = APPROVAL ( #160, 'UNSPECIFIED' ) ;
#44 = AXIS2_PLACEMENT_3D ( 'NONE', #177, #10, #94 ) ;
#45 = EDGE_LOOP ( 'NONE', ( #151 ) ) ;
#46 = DIRECTION ( 'NONE',  ( 1.510825004591027855E-30, 1.000000000000000000, 4.327174794786743375E-16 ) ) ;
#47 = CARTESIAN_POINT ( 'NONE',  ( 3.939465370587968937E-15, -1.381778445374973865E-16, 1.128307726225244778 ) ) ;
#48 = CARTESIAN_POINT ( 'NONE',  ( 1.407066979553782553E-13, -3.100000000000024514, 40.29999999999999716 ) ) ;
#49 = DIRECTION ( 'NONE',  ( 0.0000000000000000000, 1.000000000000000000, 0.0000000000000000000 ) ) ;
#50 = CC_DESIGN_DATE_AND_TIME_ASSIGNMENT ( #224, #20, ( #121 ) ) ;
#51 = FACE_OUTER_BOUND ( 'NONE', #170, .T. ) ;
#52 = CIRCLE ( 'NONE', #252, 3.100000000000007194 ) ;
#53 = DIRECTION ( 'NONE',  ( 1.510825004591027855E-30, 1.000000000000000000, 4.327174794786742882E-16 ) ) ;
#54 = ORGANIZATION ( 'UNSPECIFIED', 'UNSPECIFIED', '' ) ;
#55 = APPLICATION_CONTEXT ( 'configuration controlled 3d designs of mechanical parts and assemblies' ) ;
#56 = FACE_OUTER_BOUND ( 'NONE', #79, .T. ) ;
#57 = COORDINATED_UNIVERSAL_TIME_OFFSET ( 1, 0, .AHEAD. ) ;
#58 = DIRECTION ( 'NONE',  ( 1.000000000000000000, 0.0000000000000000000, 0.0000000000000000000 ) ) ;
#59 = EDGE_LOOP ( 'NONE', ( #191 ) ) ;
#60 = CC_DESIGN_SECURITY_CLASSIFICATION ( #121, ( #115 ) ) ;
#61 = APPROVAL_STATUS ( 'not_yet_approved' ) ;
#62 = CALENDAR_DATE ( 2021, 13, 10 ) ;
#63 = CONICAL_SURFACE ( 'NONE', #134, 3.999999999999989786, 1.221730476396026610 ) ;
#64 = DIRECTION ( 'NONE',  ( 0.0000000000000000000, 1.000000000000000000, 0.0000000000000000000 ) ) ;
#65 = CARTESIAN_POINT ( 'NONE',  ( 1.407066979553782553E-13, 2.999519565323704268E-32, 40.29999999999999716 ) ) ;
#66 = AXIS2_PLACEMENT_3D ( 'NONE', #28, #111, #46 ) ;
#67 = ORIENTED_EDGE ( 'NONE', *, *, #196, .T. ) ;
#68 = ORIENTED_EDGE ( 'NONE', *, *, #144, .F. ) ;
#69 = ADVANCED_FACE ( 'NONE', ( #229 ), #63, .T. ) ;
#70 = CARTESIAN_POINT ( 'NONE',  ( 1.407066979553782553E-13, -1.743851442299057034E-14, 40.29999999999999716 ) ) ;
#71 = CIRCLE ( 'NONE', #85, 3.100000000000014744 ) ;
#72 = DIRECTION ( 'NONE',  ( 3.491481338843133355E-15, -1.224646799147353207E-16, 1.000000000000000000 ) ) ;
#73 = ADVANCED_FACE ( 'NONE', ( #23, #8 ), #157, .F. ) ;
#74 = FACE_OUTER_BOUND ( 'NONE', #148, .T. ) ;
#75 =( LENGTH_UNIT ( ) NAMED_UNIT ( * ) SI_UNIT ( .MILLI., .METRE. ) );
#76 = FACE_OUTER_BOUND ( 'NONE', #190, .T. ) ;
#77 = CIRCLE ( 'NONE', #244, 3.100000000000007194 ) ;
#78 = DIRECTION ( 'NONE',  ( 3.491481338843133355E-15, -4.327174794786742882E-16, 1.000000000000000000 ) ) ;
#79 = EDGE_LOOP ( 'NONE', ( #67 ) ) ;
#80 = PERSON_AND_ORGANIZATION_ROLE ( 'design_supplier' ) ;
#81 = PRODUCT_RELATED_PRODUCT_CATEGORY ( 'detail', '', ( #234 ) ) ;
#82 = APPROVAL_ROLE ( '' ) ;
#83 = APPROVAL_DATE_TIME ( #263, #33 ) ;
#84 =( NAMED_UNIT ( * ) SI_UNIT ( $, .STERADIAN. ) SOLID_ANGLE_UNIT ( ) );
#85 = AXIS2_PLACEMENT_3D ( 'NONE', #135, #99, #232 ) ;
#86 = EDGE_LOOP ( 'NONE', ( #173 ) ) ;
#87 = ORIENTED_EDGE ( 'NONE', *, *, #14, .T. ) ;
#88 = EDGE_CURVE ( 'NONE', #95, #95, #77, .T. ) ;
#89 = DIRECTION ( 'NONE',  ( -4.275831445896958607E-31, -1.000000000000000000, -1.224646799147353207E-16 ) ) ;
#90 = ORIENTED_EDGE ( 'NONE', *, *, #21, .F. ) ;
#91 = FACE_OUTER_BOUND ( 'NONE', #109, .T. ) ;
#92 = CC_DESIGN_PERSON_AND_ORGANIZATION_ASSIGNMENT ( #258, #36, ( #234 ) ) ;
#93 = LOCAL_TIME ( 14, 57, 10.00000000000000000, #146 ) ;
#94 = DIRECTION ( 'NONE',  ( 4.275831445896958607E-31, 1.000000000000000000, 1.224646799147353207E-16 ) ) ;
#95 = VERTEX_POINT ( 'NONE', #140 ) ;
#96 = UNCERTAINTY_MEASURE_WITH_UNIT (LENGTH_MEASURE( 1.000000000000000082E-05 ), #75, 'distance_accuracy_value', 'NONE');
#97 = VERTEX_POINT ( 'NONE', #35 ) ;
#98 = ADVANCED_FACE ( 'NONE', ( #4 ), #131, .T. ) ;
#99 = DIRECTION ( 'NONE',  ( -3.491481338843133355E-15, 4.327174794786742882E-16, -1.000000000000000000 ) ) ;
#100 =( GEOMETRIC_REPRESENTATION_CONTEXT ( 3 ) GLOBAL_UNCERTAINTY_ASSIGNED_CONTEXT ( ( #96 ) ) GLOBAL_UNIT_ASSIGNED_CONTEXT ( ( #75, #255, #84 ) ) REPRESENTATION_CONTEXT ( 'NONE', 'WORKASPACE' ) );
#101 = EDGE_LOOP ( 'NONE', ( #239 ) ) ;
#102 = COORDINATED_UNIVERSAL_TIME_OFFSET ( 1, 0, .AHEAD. ) ;
#103 = ADVANCED_FACE ( 'NONE', ( #249, #132 ), #186, .T. ) ;
#104 = PERSON_AND_ORGANIZATION ( #262, #54 ) ;
#105 = CLOSED_SHELL ( 'NONE', ( #141, #169, #254, #210, #103, #73, #203 ) ) ;
#106 = CC_DESIGN_APPROVAL ( #223, ( #236 ) ) ;
#107 = PERSON_AND_ORGANIZATION ( #262, #54 ) ;
#108 = CALENDAR_DATE ( 2021, 13, 10 ) ;
#109 = EDGE_LOOP ( 'NONE', ( #90 ) ) ;
#110 = AXIS2_PLACEMENT_3D ( 'NONE', #38, #1, #58 ) ;
#111 = DIRECTION ( 'NONE',  ( -3.491481338843133355E-15, 4.327174794786742882E-16, -1.000000000000000000 ) ) ;
#112 = DIRECTION ( 'NONE',  ( -3.491481338843133355E-15, 1.224646799147353207E-16, -1.000000000000000000 ) ) ;
#113 = EDGE_CURVE ( 'NONE', #178, #178, #71, .T. ) ;
#114 = DIRECTION ( 'NONE',  ( -3.491481338843133355E-15, 1.224646799147353207E-16, -1.000000000000000000 ) ) ;
#115 = PRODUCT_DEFINITION_FORMATION_WITH_SPECIFIED_SOURCE ( 'ANY', '', #234, .NOT_KNOWN. ) ;
#116 = CARTESIAN_POINT ( 'NONE',  ( 1.717558141629139396E-13, -2.128659321862778716E-14, 49.19282032302755425 ) ) ;
#117 = FACE_BOUND ( 'NONE', #3, .T. ) ;
#118 = DIRECTION ( 'NONE',  ( -3.491481338843133355E-15, 4.327174794786742882E-16, -1.000000000000000000 ) ) ;
#119 = DIRECTION ( 'NONE',  ( 4.275831445896958607E-31, 1.000000000000000000, 1.224646799147353207E-16 ) ) ;
#120 = DIRECTION ( 'NONE',  ( -3.491481338843133355E-15, 4.327174794786742882E-16, -1.000000000000000000 ) ) ;
#121 = SECURITY_CLASSIFICATION ( '', '', #39 ) ;
#122 = PERSON_AND_ORGANIZATION_ROLE ( 'creator' ) ;
#123 = CC_DESIGN_PERSON_AND_ORGANIZATION_ASSIGNMENT ( #260, #80, ( #115 ) ) ;
#124 = DATE_AND_TIME ( #62, #139 ) ;
#125 = DATE_TIME_ROLE ( 'creation_date' ) ;
#126 = DIRECTION ( 'NONE',  ( -3.851859888774481340E-31, -1.000000000000000000, -1.084202172485507146E-16 ) ) ;
#127 = DIRECTION ( 'NONE',  ( 3.491481338843133355E-15, -1.224646799147353207E-16, 1.000000000000000000 ) ) ;
#128 = LOCAL_TIME ( 14, 57, 10.00000000000000000, #242 ) ;
#129 = MANIFOLD_SOLID_BREP ( 'Corps-Déplacer/Copier1[2]', #217 ) ;
#130 = ORIENTED_EDGE ( 'NONE', *, *, #5, .F. ) ;
#131 = PLANE ( 'NONE',  #2 ) ;
#132 = FACE_OUTER_BOUND ( 'NONE', #101, .T. ) ;
#133 = MANIFOLD_SOLID_BREP ( 'Corps-Déplacer/Copier1[1]', #105 ) ;
#134 = AXIS2_PLACEMENT_3D ( 'NONE', #248, #127, #126 ) ;
#135 = CARTESIAN_POINT ( 'NONE',  ( 1.623538822562056947E-13, -2.012136279575835598E-14, 46.50000000000000000 ) ) ;
#136 = FACE_OUTER_BOUND ( 'NONE', #207, .T. ) ;
#137 = ADVANCED_BREP_SHAPE_REPRESENTATION ( '960176', ( #133, #129, #110 ), #100 ) ;
#138 = CYLINDRICAL_SURFACE ( 'NONE', #167, 3.100000000000007194 ) ;
#139 = LOCAL_TIME ( 14, 57, 10.00000000000000000, #102 ) ;
#140 = CARTESIAN_POINT ( 'NONE',  ( 1.407066979553782553E-13, -3.100000000000024514, 40.29999999999999716 ) ) ;
#141 = ADVANCED_FACE ( 'NONE', ( #56, #51 ), #195, .T. ) ;
#142 = CARTESIAN_POINT ( 'NONE',  ( 3.939465370587967360E-15, -3.100000000000007194, 1.128307726225244334 ) ) ;
#143 = APPLICATION_PROTOCOL_DEFINITION ( 'international standard', 'config_control_design', 1994, #40 ) ;
#144 = EDGE_CURVE ( 'NONE', #97, #97, #256, .T. ) ;
#145 = AXIS2_PLACEMENT_3D ( 'NONE', #34, #175, #119 ) ;
#146 = COORDINATED_UNIVERSAL_TIME_OFFSET ( 1, 0, .AHEAD. ) ;
#147 = LOCAL_TIME ( 14, 57, 10.00000000000000000, #185 ) ;
#148 = EDGE_LOOP ( 'NONE', ( #153 ) ) ;
#149 = DIRECTION ( 'NONE',  ( 3.491481338843133355E-15, -1.224646799147353207E-16, 1.000000000000000000 ) ) ;
#150 = AXIS2_PLACEMENT_3D ( 'NONE', #174, #112, #64 ) ;
#151 = ORIENTED_EDGE ( 'NONE', *, *, #5, .T. ) ;
#152 = ORIENTED_EDGE ( 'NONE', *, *, #113, .F. ) ;
#153 = ORIENTED_EDGE ( 'NONE', *, *, #14, .F. ) ;
#154 = CIRCLE ( 'NONE', #206, 3.100000000000007194 ) ;
#155 = DIRECTION ( 'NONE',  ( 0.0000000000000000000, 1.000000000000000000, 0.0000000000000000000 ) ) ;
#156 = CARTESIAN_POINT ( 'NONE',  ( 3.561310965619995770E-13, 3.199999999999989964, 102.0000000000000000 ) ) ;
#157 = TOROIDAL_SURFACE ( 'NONE', #66, 4.100000000000013856, 1.000000000000000444 ) ;
#158 = CARTESIAN_POINT ( 'NONE',  ( 1.687321026266363848E-13, -2.091184888873767049E-14, 48.32679491924308479 ) ) ;
#159 = FACE_OUTER_BOUND ( 'NONE', #168, .T. ) ;
#160 = APPROVAL_STATUS ( 'not_yet_approved' ) ;
#161 = ORIENTED_EDGE ( 'NONE', *, *, #21, .T. ) ;
#162 = AXIS2_PLACEMENT_3D ( 'NONE', #251, #72, #15 ) ;
#163 = PERSON_AND_ORGANIZATION_ROLE ( 'classification_officer' ) ;
#164 = APPROVAL_ROLE ( '' ) ;
#165 = CALENDAR_DATE ( 2021, 13, 10 ) ;
#166 = CC_DESIGN_PERSON_AND_ORGANIZATION_ASSIGNMENT ( #201, #182, ( #236 ) ) ;
#167 = AXIS2_PLACEMENT_3D ( 'NONE', #215, #120, #53 ) ;
#168 = EDGE_LOOP ( 'NONE', ( #26 ) ) ;
#169 = ADVANCED_FACE ( 'NONE', ( #74, #117 ), #17, .T. ) ;
#170 = EDGE_LOOP ( 'NONE', ( #87 ) ) ;
#171 = EDGE_LOOP ( 'NONE', ( #68 ) ) ;
#172 = AXIS2_PLACEMENT_3D ( 'NONE', #246, #245, #228 ) ;
#173 = ORIENTED_EDGE ( 'NONE', *, *, #144, .T. ) ;
#174 = CARTESIAN_POINT ( 'NONE',  ( 3.533379114909250198E-13, -1.239342560737121245E-14, 101.1999999999999886 ) ) ;
#175 = DIRECTION ( 'NONE',  ( -3.491481338843133355E-15, 1.224646799147353207E-16, -1.000000000000000000 ) ) ;
#176 = PRODUCT_DEFINITION_SHAPE ( 'NONE', 'NONE',  #236 ) ;
#177 = CARTESIAN_POINT ( 'NONE',  ( 3.561310965619995770E-13, 2.399615652258955477E-32, 102.0000000000000000 ) ) ;
#178 = VERTEX_POINT ( 'NONE', #219 ) ;
#179 = CARTESIAN_POINT ( 'NONE',  ( 1.687321026266363848E-13, -4.000000000000019540, 48.32679491924308479 ) ) ;
#180 = AXIS2_PLACEMENT_3D ( 'NONE', #231, #197, #29 ) ;
#181 = CARTESIAN_POINT ( 'NONE',  ( 1.640996229256272803E-13, -2.033772153549769155E-14, 47.00000000000000000 ) ) ;
#182 = PERSON_AND_ORGANIZATION_ROLE ( 'creator' ) ;
#183 = CIRCLE ( 'NONE', #230, 3.999999999999998224 ) ;
#184 = PERSON_AND_ORGANIZATION ( #262, #54 ) ;
#185 = COORDINATED_UNIVERSAL_TIME_OFFSET ( 1, 0, .AHEAD. ) ;
#186 = CONICAL_SURFACE ( 'NONE', #41, 4.500000000000016875, 0.5235987755982991487 ) ;
#187 = EDGE_LOOP ( 'NONE', ( #130 ) ) ;
#188 = ADVANCED_FACE ( 'NONE', ( #257, #16 ), #220, .T. ) ;
#189 = CARTESIAN_POINT ( 'NONE',  ( 1.407066979553782553E-13, -1.743851442299057034E-14, 40.29999999999999716 ) ) ;
#190 = EDGE_LOOP ( 'NONE', ( #7 ) ) ;
#191 = ORIENTED_EDGE ( 'NONE', *, *, #25, .F. ) ;
#192 = CC_DESIGN_APPROVAL ( #43, ( #115 ) ) ;
#193 = CC_DESIGN_DATE_AND_TIME_ASSIGNMENT ( #42, #125, ( #236 ) ) ;
#194 = DIRECTION ( 'NONE',  ( 0.0000000000000000000, -1.000000000000000000, 0.0000000000000000000 ) ) ;
#195 = CYLINDRICAL_SURFACE ( 'NONE', #145, 3.999999999999998224 ) ;
#196 = EDGE_CURVE ( 'NONE', #213, #213, #183, .T. ) ;
#197 = DIRECTION ( 'NONE',  ( -3.491481338843133355E-15, 4.327174794786742882E-16, -1.000000000000000000 ) ) ;
#198 = DIRECTION ( 'NONE',  ( 0.0000000000000000000, -1.000000000000000000, 0.0000000000000000000 ) ) ;
#199 = CARTESIAN_POINT ( 'NONE',  ( 3.561310965619995770E-13, -1.249139735130300089E-14, 102.0000000000000000 ) ) ;
#200 = MECHANICAL_CONTEXT ( 'NONE', #40, 'mechanical' ) ;
#201 = PERSON_AND_ORGANIZATION ( #262, #54 ) ;
#202 = APPROVAL_DATE_TIME ( #124, #223 ) ;
#203 = ADVANCED_FACE ( 'NONE', ( #76 ), #216, .F. ) ;
#204 = APPROVAL_STATUS ( 'not_yet_approved' ) ;
#205 = DIRECTION ( 'NONE',  ( -4.970141791967048626E-31, -1.000000000000000000, -1.398970545142583090E-16 ) ) ;
#206 = AXIS2_PLACEMENT_3D ( 'NONE', #47, #114, #205 ) ;
#207 = EDGE_LOOP ( 'NONE', ( #208 ) ) ;
#208 = ORIENTED_EDGE ( 'NONE', *, *, #88, .F. ) ;
#209 = DIRECTION ( 'NONE',  ( -3.491481338843133355E-15, 1.224646799147353207E-16, -1.000000000000000000 ) ) ;
#210 = ADVANCED_FACE ( 'NONE', ( #159, #136 ), #138, .T. ) ;
#211 = DIRECTION ( 'NONE',  ( 3.491481338843133355E-15, -4.327174794786742882E-16, 1.000000000000000000 ) ) ;
#212 = CC_DESIGN_APPROVAL ( #33, ( #121 ) ) ;
#213 = VERTEX_POINT ( 'NONE', #179 ) ;
#214 = CC_DESIGN_PERSON_AND_ORGANIZATION_ASSIGNMENT ( #37, #122, ( #115 ) ) ;
#215 = CARTESIAN_POINT ( 'NONE',  ( 0.0000000000000000000, 0.0000000000000000000, 0.0000000000000000000 ) ) ;
#216 = PLANE ( 'NONE',  #162 ) ;
#217 = CLOSED_SHELL ( 'NONE', ( #69, #188, #98 ) ) ;
#218 = CIRCLE ( 'NONE', #172, 3.200000000000002842 ) ;
#219 = CARTESIAN_POINT ( 'NONE',  ( 1.623538822562056947E-13, 3.099999999999994760, 46.50000000000000000 ) ) ;
#220 = CYLINDRICAL_SURFACE ( 'NONE', #180, 3.100000000000007194 ) ;
#221 = CALENDAR_DATE ( 2021, 13, 10 ) ;
#222 = APPROVAL_DATE_TIME ( #238, #43 ) ;
#223 = APPROVAL ( #204, 'UNSPECIFIED' ) ;
#224 = DATE_AND_TIME ( #165, #128 ) ;
#225 = APPROVAL_PERSON_ORGANIZATION ( #107, #223, #18 ) ;
#226 = EDGE_LOOP ( 'NONE', ( #250 ) ) ;
#227 = DIRECTION ( 'NONE',  ( 0.0000000000000000000, -1.000000000000000000, 0.0000000000000000000 ) ) ;
#228 = DIRECTION ( 'NONE',  ( 0.0000000000000000000, 1.000000000000000000, 0.0000000000000000000 ) ) ;
#229 = FACE_OUTER_BOUND ( 'NONE', #226, .T. ) ;
#230 = AXIS2_PLACEMENT_3D ( 'NONE', #158, #78, #198 ) ;
#231 = CARTESIAN_POINT ( 'NONE',  ( 0.0000000000000000000, 0.0000000000000000000, 0.0000000000000000000 ) ) ;
#232 = DIRECTION ( 'NONE',  ( 0.0000000000000000000, 1.000000000000000000, 0.0000000000000000000 ) ) ;
#233 = VERTEX_POINT ( 'NONE', #156 ) ;
#234 = PRODUCT ( '960176', '960176', '', ( #200 ) ) ;
#235 = VERTEX_POINT ( 'NONE', #9 ) ;
#236 = PRODUCT_DEFINITION ( 'UNKNOWN', '', #115, #11 ) ;
#237 = APPLICATION_PROTOCOL_DEFINITION ( 'international standard', 'config_control_design', 1994, #55 ) ;
#238 = DATE_AND_TIME ( #221, #93 ) ;
#239 = ORIENTED_EDGE ( 'NONE', *, *, #196, .F. ) ;
#240 = AXIS2_PLACEMENT_3D ( 'NONE', #181, #118, #155 ) ;
#241 = CC_DESIGN_PERSON_AND_ORGANIZATION_ASSIGNMENT ( #184, #163, ( #121 ) ) ;
#242 = COORDINATED_UNIVERSAL_TIME_OFFSET ( 1, 0, .AHEAD. ) ;
#243 = SHAPE_DEFINITION_REPRESENTATION ( #176, #137 ) ;
#244 = AXIS2_PLACEMENT_3D ( 'NONE', #189, #209, #227 ) ;
#245 = DIRECTION ( 'NONE',  ( -3.491481338843133355E-15, 1.224646799147353207E-16, -1.000000000000000000 ) ) ;
#246 = CARTESIAN_POINT ( 'NONE',  ( 3.561310965619995770E-13, -1.249139735130300089E-14, 102.0000000000000000 ) ) ;
#247 = APPROVAL_PERSON_ORGANIZATION ( #104, #43, #164 ) ;
#248 = CARTESIAN_POINT ( 'NONE',  ( 5.083181123339289718E-15, -1.782939929516086737E-16, 1.455880937064824687 ) ) ;
#249 = FACE_BOUND ( 'NONE', #171, .T. ) ;
#250 = ORIENTED_EDGE ( 'NONE', *, *, #25, .T. ) ;
#251 = CARTESIAN_POINT ( 'NONE',  ( 1.407066979553782553E-13, 2.999519565323704268E-32, 40.29999999999999716 ) ) ;
#252 = AXIS2_PLACEMENT_3D ( 'NONE', #70, #6, #27 ) ;
#253 = VERTEX_POINT ( 'NONE', #48 ) ;
#254 = ADVANCED_FACE ( 'NONE', ( #91 ), #30, .F. ) ;
#255 =( NAMED_UNIT ( * ) PLANE_ANGLE_UNIT ( ) SI_UNIT ( $, .RADIAN. ) );
#256 = CIRCLE ( 'NONE', #240, 3.233974596215575925 ) ;
#257 = FACE_OUTER_BOUND ( 'NONE', #45, .T. ) ;
#258 = PERSON_AND_ORGANIZATION ( #262, #54 ) ;
#259 = EDGE_LOOP ( 'NONE', ( #152 ) ) ;
#260 = PERSON_AND_ORGANIZATION ( #262, #54 ) ;
#261 = PERSON_AND_ORGANIZATION ( #262, #54 ) ;
#262 = PERSON ( 'UNSPECIFIED', 'UNSPECIFIED', 'UNSPECIFIED', ('UNSPECIFIED'), ('UNSPECIFIED'), ('UNSPECIFIED') ) ;
#263 = DATE_AND_TIME ( #108, #147 ) ;
ENDSEC;
END-ISO-10303-21;
