ISO-10303-21;
HEADER;
FILE_DESCRIPTION (( 'STEP AP203' ),
    '1' );
FILE_NAME ('960175.step',
    '2021-10-13T12:57:09',
    ( '' ),
    ( '' ),
    'SwSTEP 2.0',
    'SolidWorks 2019',
    '' );
FILE_SCHEMA (( 'CONFIG_CONTROL_DESIGN' ));
ENDSEC;

DATA;
#1 = ORIENTED_EDGE ( 'NONE', *, *, #108, .T. ) ;
#2 = LOCAL_TIME ( 14, 57, 9.000000000000000000, #117 ) ;
#3 = DIRECTION ( 'NONE',  ( 3.491481338843133355E-15, -1.224646799147353207E-16, 1.000000000000000000 ) ) ;
#4 = DIRECTION ( 'NONE',  ( -3.491481338843133355E-15, 4.327174794786742882E-16, -1.000000000000000000 ) ) ;
#5 = CARTESIAN_POINT ( 'NONE',  ( 1.599098453190155203E-13, -1.981846056012328051E-14, 45.79999999999999716 ) ) ;
#6 = DIRECTION ( 'NONE',  ( 1.510825004591027855E-30, 1.000000000000000000, 4.327174794786742882E-16 ) ) ;
#7 = CARTESIAN_POINT ( 'NONE',  ( 3.875925606546225607E-15, -3.050000000000006484, 1.110109214511933784 ) ) ;
#8 = FACE_OUTER_BOUND ( 'NONE', #198, .T. ) ;
#9 = AXIS2_PLACEMENT_3D ( 'NONE', #56, #245, #122 ) ;
#10 = VERTEX_POINT ( 'NONE', #11 ) ;
#11 = CARTESIAN_POINT ( 'NONE',  ( 1.616555859884370807E-13, 3.183974596215554786, 46.30000000000000426 ) ) ;
#12 = ADVANCED_FACE ( 'NONE', ( #95 ), #239, .T. ) ;
#13 = APPROVAL_PERSON_ORGANIZATION ( #94, #147, #238 ) ;
#14 = DATE_AND_TIME ( #192, #2 ) ;
#15 = EDGE_LOOP ( 'NONE', ( #75 ) ) ;
#16 = CC_DESIGN_PERSON_AND_ORGANIZATION_ASSIGNMENT ( #71, #152, ( #188 ) ) ;
#17 = AXIS2_PLACEMENT_3D ( 'NONE', #87, #4, #252 ) ;
#18 = CARTESIAN_POINT ( 'NONE',  ( 5.083181123339289718E-15, -1.782939929516086737E-16, 1.455880937064824687 ) ) ;
#19 = DIRECTION ( 'NONE',  ( -3.851859888774481340E-31, -1.000000000000000000, -1.084202172485507146E-16 ) ) ;
#20 = DIRECTION ( 'NONE',  ( 3.491481338843133355E-15, -1.224646799147353207E-16, 1.000000000000000000 ) ) ;
#21 = AXIS2_PLACEMENT_3D ( 'NONE', #247, #141, #99 ) ;
#22 = PRODUCT_DEFINITION ( 'UNKNOWN', '', #67, #115 ) ;
#23 = DIRECTION ( 'NONE',  ( 0.0000000000000000000, -1.000000000000000000, 0.0000000000000000000 ) ) ;
#24 = CARTESIAN_POINT ( 'NONE',  ( 3.533379114909250198E-13, 3.999999999999989786, 101.1999999999999886 ) ) ;
#25 = ADVANCED_FACE ( 'NONE', ( #263, #218 ), #254, .T. ) ;
#26 = DIRECTION ( 'NONE',  ( 3.491481338843133355E-15, -1.224646799147353207E-16, 1.000000000000000000 ) ) ;
#27 = FACE_OUTER_BOUND ( 'NONE', #242, .T. ) ;
#28 = ADVANCED_FACE ( 'NONE', ( #200, #219 ), #80, .T. ) ;
#29 = PERSON_AND_ORGANIZATION ( #217, #35 ) ;
#30 = CARTESIAN_POINT ( 'NONE',  ( 0.0000000000000000000, 0.0000000000000000000, 0.0000000000000000000 ) ) ;
#31 = CONICAL_SURFACE ( 'NONE', #83, 3.200000000000002842, 0.7853981633974420618 ) ;
#32 = DATE_TIME_ROLE ( 'creation_date' ) ;
#33 = PERSON_AND_ORGANIZATION_ROLE ( 'design_supplier' ) ;
#34 = PERSON_AND_ORGANIZATION_ROLE ( 'design_owner' ) ;
#35 = ORGANIZATION ( 'UNSPECIFIED', 'UNSPECIFIED', '' ) ;
#36 = ADVANCED_FACE ( 'NONE', ( #140 ), #221, .F. ) ;
#37 = DATE_TIME_ROLE ( 'classification_date' ) ;
#38 = EDGE_LOOP ( 'NONE', ( #156 ) ) ;
#39 = ORIENTED_EDGE ( 'NONE', *, *, #108, .F. ) ;
#40 = LOCAL_TIME ( 14, 57, 9.000000000000000000, #133 ) ;
#41 = EDGE_LOOP ( 'NONE', ( #174 ) ) ;
#42 = DIRECTION ( 'NONE',  ( -3.491481338843133355E-15, 1.224646799147353207E-16, -1.000000000000000000 ) ) ;
#43 = VERTEX_POINT ( 'NONE', #24 ) ;
#44 = CIRCLE ( 'NONE', #186, 3.050000000000006484 ) ;
#45 = AXIS2_PLACEMENT_3D ( 'NONE', #130, #143, #46 ) ;
#46 = DIRECTION ( 'NONE',  ( 0.0000000000000000000, 1.000000000000000000, 0.0000000000000000000 ) ) ;
#47 = CARTESIAN_POINT ( 'NONE',  ( 0.0000000000000000000, 0.0000000000000000000, 0.0000000000000000000 ) ) ;
#48 = CARTESIAN_POINT ( 'NONE',  ( 3.561310965619995770E-13, -1.249139735130300089E-14, 102.0000000000000000 ) ) ;
#49 = LOCAL_TIME ( 14, 57, 9.000000000000000000, #199 ) ;
#50 = CC_DESIGN_PERSON_AND_ORGANIZATION_ASSIGNMENT ( #210, #191, ( #22 ) ) ;
#51 = CARTESIAN_POINT ( 'NONE',  ( 3.561310965619995770E-13, -1.249139735130300089E-14, 102.0000000000000000 ) ) ;
#52 = PERSON_AND_ORGANIZATION ( #217, #35 ) ;
#53 = APPROVAL ( #236, 'UNSPECIFIED' ) ;
#54 = EDGE_LOOP ( 'NONE', ( #1 ) ) ;
#55 = ORIENTED_EDGE ( 'NONE', *, *, #98, .F. ) ;
#56 = CARTESIAN_POINT ( 'NONE',  ( 0.0000000000000000000, 0.0000000000000000000, 0.0000000000000000000 ) ) ;
#57 = AXIS2_PLACEMENT_3D ( 'NONE', #125, #104, #226 ) ;
#58 = APPROVAL ( #212, 'UNSPECIFIED' ) ;
#59 = ORIENTED_EDGE ( 'NONE', *, *, #224, .F. ) ;
#60 = PLANE ( 'NONE',  #153 ) ;
#61 = DIRECTION ( 'NONE',  ( -5.051619526261591096E-31, -1.000000000000000000, -1.421904488505576450E-16 ) ) ;
#62 = CC_DESIGN_PERSON_AND_ORGANIZATION_ASSIGNMENT ( #92, #33, ( #67 ) ) ;
#63 =( GEOMETRIC_REPRESENTATION_CONTEXT ( 3 ) GLOBAL_UNCERTAINTY_ASSIGNED_CONTEXT ( ( #214 ) ) GLOBAL_UNIT_ASSIGNED_CONTEXT ( ( #131, #190, #113 ) ) REPRESENTATION_CONTEXT ( 'NONE', 'WORKASPACE' ) );
#64 = FACE_OUTER_BOUND ( 'NONE', #54, .T. ) ;
#65 = CARTESIAN_POINT ( 'NONE',  ( 1.665904368430739230E-13, -4.000000000000019540, 47.71339745962152534 ) ) ;
#66 = CARTESIAN_POINT ( 'NONE',  ( 1.386118091520724131E-13, -1.717888393530337271E-14, 39.70000000000000284 ) ) ;
#67 = PRODUCT_DEFINITION_FORMATION_WITH_SPECIFIED_SOURCE ( 'ANY', '', #93, .NOT_KNOWN. ) ;
#68 = DATE_AND_TIME ( #256, #97 ) ;
#69 = APPLICATION_PROTOCOL_DEFINITION ( 'international standard', 'config_control_design', 1994, #222 ) ;
#70 = APPROVAL_DATE_TIME ( #90, #53 ) ;
#71 = PERSON_AND_ORGANIZATION ( #217, #35 ) ;
#72 = ADVANCED_FACE ( 'NONE', ( #120 ), #60, .F. ) ;
#73 = PERSON_AND_ORGANIZATION_ROLE ( 'creator' ) ;
#74 = DATE_AND_TIME ( #241, #49 ) ;
#75 = ORIENTED_EDGE ( 'NONE', *, *, #197, .T. ) ;
#76 = ORIENTED_EDGE ( 'NONE', *, *, #135, .F. ) ;
#77 = SHAPE_DEFINITION_REPRESENTATION ( #209, #179 ) ;
#78 = EDGE_LOOP ( 'NONE', ( #123 ) ) ;
#79 = ORIENTED_EDGE ( 'NONE', *, *, #121, .T. ) ;
#80 = CYLINDRICAL_SURFACE ( 'NONE', #9, 3.050000000000006484 ) ;
#81 = FACE_OUTER_BOUND ( 'NONE', #41, .T. ) ;
#82 = DIRECTION ( 'NONE',  ( -3.491481338843133355E-15, 4.327174794786742882E-16, -1.000000000000000000 ) ) ;
#83 = AXIS2_PLACEMENT_3D ( 'NONE', #48, #208, #251 ) ;
#84 = DIRECTION ( 'NONE',  ( -4.275831445896958607E-31, -1.000000000000000000, -1.224646799147353207E-16 ) ) ;
#85 = DIRECTION ( 'NONE',  ( -3.491481338843133355E-15, 4.327174794786742882E-16, -1.000000000000000000 ) ) ;
#86 = EDGE_CURVE ( 'NONE', #164, #164, #44, .T. ) ;
#87 = CARTESIAN_POINT ( 'NONE',  ( 1.616555859884370807E-13, -2.003481929986261923E-14, 46.30000000000000426 ) ) ;
#88 = CIRCLE ( 'NONE', #163, 3.050000000000006484 ) ;
#89 = PERSON_AND_ORGANIZATION ( #217, #35 ) ;
#90 = DATE_AND_TIME ( #213, #102 ) ;
#91 = SECURITY_CLASSIFICATION_LEVEL ( 'unclassified' ) ;
#92 = PERSON_AND_ORGANIZATION ( #217, #35 ) ;
#93 = PRODUCT ( '960175', '960175', '', ( #257 ) ) ;
#94 = PERSON_AND_ORGANIZATION ( #217, #35 ) ;
#95 = FACE_OUTER_BOUND ( 'NONE', #175, .T. ) ;
#96 = CARTESIAN_POINT ( 'NONE',  ( 3.875925606546227185E-15, -1.359491696256022479E-16, 1.110109214511934228 ) ) ;
#97 = LOCAL_TIME ( 14, 57, 9.000000000000000000, #187 ) ;
#98 = EDGE_CURVE ( 'NONE', #228, #228, #225, .T. ) ;
#99 = DIRECTION ( 'NONE',  ( 0.0000000000000000000, -1.000000000000000000, 0.0000000000000000000 ) ) ;
#100 = ORIENTED_EDGE ( 'NONE', *, *, #135, .T. ) ;
#101 = ORIENTED_EDGE ( 'NONE', *, *, #112, .F. ) ;
#102 = LOCAL_TIME ( 14, 57, 9.000000000000000000, #259 ) ;
#103 = PRODUCT_RELATED_PRODUCT_CATEGORY ( 'detail', '', ( #93 ) ) ;
#104 = DIRECTION ( 'NONE',  ( 3.491481338843133355E-15, -4.327174794786742882E-16, 1.000000000000000000 ) ) ;
#105 = CARTESIAN_POINT ( 'NONE',  ( 1.599098453190155203E-13, 3.049999999999994049, 45.79999999999999716 ) ) ;
#106 = CARTESIAN_POINT ( 'NONE',  ( 1.386118091520724131E-13, -1.717888393530337271E-14, 39.70000000000000284 ) ) ;
#107 = CYLINDRICAL_SURFACE ( 'NONE', #116, 3.050000000000006484 ) ;
#108 = EDGE_CURVE ( 'NONE', #145, #145, #261, .T. ) ;
#109 = FACE_BOUND ( 'NONE', #38, .T. ) ;
#110 = DATE_AND_TIME ( #260, #40 ) ;
#111 = AXIS2_PLACEMENT_3D ( 'NONE', #51, #202, #230 ) ;
#112 = EDGE_CURVE ( 'NONE', #43, #43, #195, .T. ) ;
#113 =( NAMED_UNIT ( * ) SI_UNIT ( $, .STERADIAN. ) SOLID_ANGLE_UNIT ( ) );
#114 = APPROVAL_ROLE ( '' ) ;
#115 = DESIGN_CONTEXT ( 'detailed design', #244, 'design' ) ;
#116 = AXIS2_PLACEMENT_3D ( 'NONE', #227, #85, #6 ) ;
#117 = COORDINATED_UNIVERSAL_TIME_OFFSET ( 1, 0, .AHEAD. ) ;
#118 = ADVANCED_FACE ( 'NONE', ( #8, #109 ), #31, .T. ) ;
#119 = EDGE_LOOP ( 'NONE', ( #79 ) ) ;
#120 = FACE_OUTER_BOUND ( 'NONE', #154, .T. ) ;
#121 = EDGE_CURVE ( 'NONE', #144, #144, #201, .T. ) ;
#122 = DIRECTION ( 'NONE',  ( 1.510825004591027855E-30, 1.000000000000000000, 4.327174794786742882E-16 ) ) ;
#123 = ORIENTED_EDGE ( 'NONE', *, *, #86, .F. ) ;
#124 = DIRECTION ( 'NONE',  ( 4.275831445896958607E-31, 1.000000000000000000, 1.224646799147353207E-16 ) ) ;
#125 = CARTESIAN_POINT ( 'NONE',  ( 1.665904368430739230E-13, -2.064642108609160890E-14, 47.71339745962152534 ) ) ;
#126 = FACE_OUTER_BOUND ( 'NONE', #173, .T. ) ;
#127 = DIRECTION ( 'NONE',  ( -3.491481338843133355E-15, 1.224646799147353207E-16, -1.000000000000000000 ) ) ;
#128 = PLANE ( 'NONE',  #177 ) ;
#129 = CC_DESIGN_APPROVAL ( #53, ( #67 ) ) ;
#130 = CARTESIAN_POINT ( 'NONE',  ( 3.533379114909250198E-13, -1.239342560737121245E-14, 101.1999999999999886 ) ) ;
#131 =( LENGTH_UNIT ( ) NAMED_UNIT ( * ) SI_UNIT ( .MILLI., .METRE. ) );
#132 = CC_DESIGN_PERSON_AND_ORGANIZATION_ASSIGNMENT ( #258, #34, ( #93 ) ) ;
#133 = COORDINATED_UNIVERSAL_TIME_OFFSET ( 1, 0, .AHEAD. ) ;
#134 = DIRECTION ( 'NONE',  ( 0.0000000000000000000, 0.0000000000000000000, 1.000000000000000000 ) ) ;
#135 = EDGE_CURVE ( 'NONE', #237, #237, #207, .T. ) ;
#136 = AXIS2_PLACEMENT_3D ( 'NONE', #106, #206, #23 ) ;
#137 = APPROVAL_DATE_TIME ( #74, #147 ) ;
#138 = ORIENTED_EDGE ( 'NONE', *, *, #86, .T. ) ;
#139 = EDGE_LOOP ( 'NONE', ( #76 ) ) ;
#140 = FACE_OUTER_BOUND ( 'NONE', #159, .T. ) ;
#141 = DIRECTION ( 'NONE',  ( 3.491481338843133355E-15, -4.327174794786742882E-16, 1.000000000000000000 ) ) ;
#142 = AXIS2_PLACEMENT_3D ( 'NONE', #47, #127, #165 ) ;
#143 = DIRECTION ( 'NONE',  ( -3.491481338843133355E-15, 1.224646799147353207E-16, -1.000000000000000000 ) ) ;
#144 = VERTEX_POINT ( 'NONE', #105 ) ;
#145 = VERTEX_POINT ( 'NONE', #65 ) ;
#146 = CC_DESIGN_APPROVAL ( #147, ( #188 ) ) ;
#147 = APPROVAL ( #155, 'UNSPECIFIED' ) ;
#148 = CARTESIAN_POINT ( 'NONE',  ( 3.561310965619995770E-13, 3.199999999999989964, 102.0000000000000000 ) ) ;
#149 = APPLICATION_PROTOCOL_DEFINITION ( 'international standard', 'config_control_design', 1994, #244 ) ;
#150 = CLOSED_SHELL ( 'NONE', ( #203, #118, #36, #28, #25, #160, #72 ) ) ;
#151 = CIRCLE ( 'NONE', #17, 3.183974596215574770 ) ;
#152 = PERSON_AND_ORGANIZATION_ROLE ( 'classification_officer' ) ;
#153 = AXIS2_PLACEMENT_3D ( 'NONE', #178, #3, #223 ) ;
#154 = EDGE_LOOP ( 'NONE', ( #100 ) ) ;
#155 = APPROVAL_STATUS ( 'not_yet_approved' ) ;
#156 = ORIENTED_EDGE ( 'NONE', *, *, #98, .T. ) ;
#157 = ORIENTED_EDGE ( 'NONE', *, *, #112, .T. ) ;
#158 = AXIS2_PLACEMENT_3D ( 'NONE', #30, #134, #172 ) ;
#159 = EDGE_LOOP ( 'NONE', ( #55 ) ) ;
#160 = ADVANCED_FACE ( 'NONE', ( #81, #253 ), #246, .F. ) ;
#161 = DIRECTION ( 'NONE',  ( -3.491481338843133355E-15, 4.327174794786742882E-16, -1.000000000000000000 ) ) ;
#162 = FACE_OUTER_BOUND ( 'NONE', #78, .T. ) ;
#163 = AXIS2_PLACEMENT_3D ( 'NONE', #66, #205, #250 ) ;
#164 = VERTEX_POINT ( 'NONE', #7 ) ;
#165 = DIRECTION ( 'NONE',  ( 4.275831445896958607E-31, 1.000000000000000000, 1.224646799147353207E-16 ) ) ;
#166 = ADVANCED_FACE ( 'NONE', ( #27, #162 ), #107, .T. ) ;
#167 = CLOSED_SHELL ( 'NONE', ( #12, #166, #243 ) ) ;
#168 = CARTESIAN_POINT ( 'NONE',  ( 1.386118091520724131E-13, 2.999519565323704268E-32, 39.70000000000000284 ) ) ;
#169 = APPROVAL_ROLE ( '' ) ;
#170 = AXIS2_PLACEMENT_3D ( 'NONE', #220, #42, #124 ) ;
#171 = APPROVAL_DATE_TIME ( #110, #58 ) ;
#172 = DIRECTION ( 'NONE',  ( 1.000000000000000000, 0.0000000000000000000, 0.0000000000000000000 ) ) ;
#173 = EDGE_LOOP ( 'NONE', ( #157 ) ) ;
#174 = ORIENTED_EDGE ( 'NONE', *, *, #121, .F. ) ;
#175 = EDGE_LOOP ( 'NONE', ( #138 ) ) ;
#176 = ORIENTED_EDGE ( 'NONE', *, *, #197, .F. ) ;
#177 = AXIS2_PLACEMENT_3D ( 'NONE', #168, #26, #84 ) ;
#178 = CARTESIAN_POINT ( 'NONE',  ( 1.386118091520724131E-13, 2.999519565323704268E-32, 39.70000000000000284 ) ) ;
#179 = ADVANCED_BREP_SHAPE_REPRESENTATION ( '960175', ( #229, #234, #158 ), #63 ) ;
#180 = DIRECTION ( 'NONE',  ( 0.0000000000000000000, 1.000000000000000000, 0.0000000000000000000 ) ) ;
#181 = DIRECTION ( 'NONE',  ( -3.491481338843133355E-15, 1.224646799147353207E-16, -1.000000000000000000 ) ) ;
#182 = AXIS2_PLACEMENT_3D ( 'NONE', #18, #20, #19 ) ;
#183 = CARTESIAN_POINT ( 'NONE',  ( 1.599098453190155203E-13, -1.994931997373328159E-14, 45.79999999999999716 ) ) ;
#184 = CC_DESIGN_SECURITY_CLASSIFICATION ( #188, ( #67 ) ) ;
#185 = CYLINDRICAL_SURFACE ( 'NONE', #142, 3.999999999999998224 ) ;
#186 = AXIS2_PLACEMENT_3D ( 'NONE', #96, #181, #61 ) ;
#187 = COORDINATED_UNIVERSAL_TIME_OFFSET ( 1, 0, .AHEAD. ) ;
#188 = SECURITY_CLASSIFICATION ( '', '', #91 ) ;
#189 = CC_DESIGN_DATE_AND_TIME_ASSIGNMENT ( #68, #37, ( #188 ) ) ;
#190 =( NAMED_UNIT ( * ) PLANE_ANGLE_UNIT ( ) SI_UNIT ( $, .RADIAN. ) );
#191 = PERSON_AND_ORGANIZATION_ROLE ( 'creator' ) ;
#192 = CALENDAR_DATE ( 2021, 13, 10 ) ;
#193 = EDGE_LOOP ( 'NONE', ( #59 ) ) ;
#194 = EDGE_LOOP ( 'NONE', ( #176 ) ) ;
#195 = CIRCLE ( 'NONE', #45, 4.000000000000001776 ) ;
#196 = ORIENTED_EDGE ( 'NONE', *, *, #224, .T. ) ;
#197 = EDGE_CURVE ( 'NONE', #10, #10, #151, .T. ) ;
#198 = EDGE_LOOP ( 'NONE', ( #101 ) ) ;
#199 = COORDINATED_UNIVERSAL_TIME_OFFSET ( 1, 0, .AHEAD. ) ;
#200 = FACE_OUTER_BOUND ( 'NONE', #119, .T. ) ;
#201 = CIRCLE ( 'NONE', #240, 3.050000000000014033 ) ;
#202 = DIRECTION ( 'NONE',  ( -3.491481338843133355E-15, 1.224646799147353207E-16, -1.000000000000000000 ) ) ;
#203 = ADVANCED_FACE ( 'NONE', ( #64, #126 ), #185, .T. ) ;
#204 = FACE_OUTER_BOUND ( 'NONE', #193, .T. ) ;
#205 = DIRECTION ( 'NONE',  ( -3.491481338843133355E-15, 1.224646799147353207E-16, -1.000000000000000000 ) ) ;
#206 = DIRECTION ( 'NONE',  ( -3.491481338843133355E-15, 1.224646799147353207E-16, -1.000000000000000000 ) ) ;
#207 = CIRCLE ( 'NONE', #136, 3.050000000000006484 ) ;
#208 = DIRECTION ( 'NONE',  ( -3.491481338843133355E-15, 1.224646799147353207E-16, -1.000000000000000000 ) ) ;
#209 = PRODUCT_DEFINITION_SHAPE ( 'NONE', 'NONE',  #22 ) ;
#210 = PERSON_AND_ORGANIZATION ( #217, #35 ) ;
#211 = APPROVAL_PERSON_ORGANIZATION ( #89, #53, #169 ) ;
#212 = APPROVAL_STATUS ( 'not_yet_approved' ) ;
#213 = CALENDAR_DATE ( 2021, 13, 10 ) ;
#214 = UNCERTAINTY_MEASURE_WITH_UNIT (LENGTH_MEASURE( 1.000000000000000082E-05 ), #131, 'distance_accuracy_value', 'NONE');
#215 = VERTEX_POINT ( 'NONE', #232 ) ;
#216 = CC_DESIGN_DATE_AND_TIME_ASSIGNMENT ( #14, #32, ( #22 ) ) ;
#217 = PERSON ( 'UNSPECIFIED', 'UNSPECIFIED', 'UNSPECIFIED', ('UNSPECIFIED'), ('UNSPECIFIED'), ('UNSPECIFIED') ) ;
#218 = FACE_OUTER_BOUND ( 'NONE', #249, .T. ) ;
#219 = FACE_OUTER_BOUND ( 'NONE', #139, .T. ) ;
#220 = CARTESIAN_POINT ( 'NONE',  ( 3.561310965619995770E-13, 2.399615652258955477E-32, 102.0000000000000000 ) ) ;
#221 = PLANE ( 'NONE',  #170 ) ;
#222 = APPLICATION_CONTEXT ( 'configuration controlled 3d designs of mechanical parts and assemblies' ) ;
#223 = DIRECTION ( 'NONE',  ( -4.275831445896958607E-31, -1.000000000000000000, -1.224646799147353207E-16 ) ) ;
#224 = EDGE_CURVE ( 'NONE', #215, #215, #88, .T. ) ;
#225 = CIRCLE ( 'NONE', #111, 3.200000000000002842 ) ;
#226 = DIRECTION ( 'NONE',  ( 0.0000000000000000000, -1.000000000000000000, 0.0000000000000000000 ) ) ;
#227 = CARTESIAN_POINT ( 'NONE',  ( 0.0000000000000000000, 0.0000000000000000000, 0.0000000000000000000 ) ) ;
#228 = VERTEX_POINT ( 'NONE', #148 ) ;
#229 = MANIFOLD_SOLID_BREP ( 'Corps-Déplacer/Copier1[1]', #150 ) ;
#230 = DIRECTION ( 'NONE',  ( 0.0000000000000000000, 1.000000000000000000, 0.0000000000000000000 ) ) ;
#231 = AXIS2_PLACEMENT_3D ( 'NONE', #183, #161, #255 ) ;
#232 = CARTESIAN_POINT ( 'NONE',  ( 1.386118091520724131E-13, -3.050000000000024247, 39.70000000000000284 ) ) ;
#233 = CARTESIAN_POINT ( 'NONE',  ( 1.386118091520724131E-13, -3.050000000000024247, 39.70000000000000284 ) ) ;
#234 = MANIFOLD_SOLID_BREP ( 'Corps-Déplacer/Copier1[2]', #167 ) ;
#235 = APPROVAL_PERSON_ORGANIZATION ( #29, #58, #114 ) ;
#236 = APPROVAL_STATUS ( 'not_yet_approved' ) ;
#237 = VERTEX_POINT ( 'NONE', #233 ) ;
#238 = APPROVAL_ROLE ( '' ) ;
#239 = CONICAL_SURFACE ( 'NONE', #182, 3.999999999999989786, 1.221730476396026610 ) ;
#240 = AXIS2_PLACEMENT_3D ( 'NONE', #5, #82, #180 ) ;
#241 = CALENDAR_DATE ( 2021, 13, 10 ) ;
#242 = EDGE_LOOP ( 'NONE', ( #196 ) ) ;
#243 = ADVANCED_FACE ( 'NONE', ( #204 ), #128, .T. ) ;
#244 = APPLICATION_CONTEXT ( 'configuration controlled 3d designs of mechanical parts and assemblies' ) ;
#245 = DIRECTION ( 'NONE',  ( -3.491481338843133355E-15, 4.327174794786742882E-16, -1.000000000000000000 ) ) ;
#246 = TOROIDAL_SURFACE ( 'NONE', #231, 4.050000000000014921, 1.000000000000000888 ) ;
#247 = CARTESIAN_POINT ( 'NONE',  ( 1.696141483793514778E-13, -2.102116541598172556E-14, 48.57942286340599480 ) ) ;
#248 = CC_DESIGN_PERSON_AND_ORGANIZATION_ASSIGNMENT ( #52, #73, ( #67 ) ) ;
#249 = EDGE_LOOP ( 'NONE', ( #39 ) ) ;
#250 = DIRECTION ( 'NONE',  ( 0.0000000000000000000, -1.000000000000000000, 0.0000000000000000000 ) ) ;
#251 = DIRECTION ( 'NONE',  ( 0.0000000000000000000, 1.000000000000000000, 0.0000000000000000000 ) ) ;
#252 = DIRECTION ( 'NONE',  ( 0.0000000000000000000, 1.000000000000000000, 0.0000000000000000000 ) ) ;
#253 = FACE_OUTER_BOUND ( 'NONE', #15, .T. ) ;
#254 = CONICAL_SURFACE ( 'NONE', #21, 4.500000000000015987, 0.5235987755982995928 ) ;
#255 = DIRECTION ( 'NONE',  ( 1.510825004591027679E-30, 1.000000000000000000, 4.327174794786742882E-16 ) ) ;
#256 = CALENDAR_DATE ( 2021, 13, 10 ) ;
#257 = MECHANICAL_CONTEXT ( 'NONE', #222, 'mechanical' ) ;
#258 = PERSON_AND_ORGANIZATION ( #217, #35 ) ;
#259 = COORDINATED_UNIVERSAL_TIME_OFFSET ( 1, 0, .AHEAD. ) ;
#260 = CALENDAR_DATE ( 2021, 13, 10 ) ;
#261 = CIRCLE ( 'NONE', #57, 3.999999999999998224 ) ;
#262 = CC_DESIGN_APPROVAL ( #58, ( #22 ) ) ;
#263 = FACE_BOUND ( 'NONE', #194, .T. ) ;
ENDSEC;
END-ISO-10303-21;
