ISO-10303-21;
HEADER;
FILE_DESCRIPTION (( 'STEP AP203' ),
    '1' );
FILE_NAME ('960174.step',
    '2021-10-13T12:57:08',
    ( '' ),
    ( '' ),
    'SwSTEP 2.0',
    'SolidWorks 2019',
    '' );
FILE_SCHEMA (( 'CONFIG_CONTROL_DESIGN' ));
ENDSEC;

DATA;
#1 = AXIS2_PLACEMENT_3D ( 'NONE', #172, #128, #76 ) ;
#2 = CARTESIAN_POINT ( 'NONE',  ( 3.812385842504468866E-15, 2.999999999999992450, 1.091910702798619015 ) ) ;
#3 = CALENDAR_DATE ( 2021, 13, 10 ) ;
#4 = PRODUCT_DEFINITION_FORMATION_WITH_SPECIFIED_SOURCE ( 'ANY', '', #191, .NOT_KNOWN. ) ;
#5 = EDGE_CURVE ( 'NONE', #124, #124, #27, .T. ) ;
#6 = PERSON_AND_ORGANIZATION ( #133, #93 ) ;
#7 = CARTESIAN_POINT ( 'NONE',  ( 3.812385842504467288E-15, -1.337204947137065176E-16, 1.091910702798618571 ) ) ;
#8 = CALENDAR_DATE ( 2021, 13, 10 ) ;
#9 = APPROVAL_PERSON_ORGANIZATION ( #31, #19, #195 ) ;
#10 = ADVANCED_FACE ( 'NONE', ( #148 ), #130, .T. ) ;
#11 = CC_DESIGN_PERSON_AND_ORGANIZATION_ASSIGNMENT ( #180, #84, ( #4 ) ) ;
#12 = FACE_OUTER_BOUND ( 'NONE', #85, .T. ) ;
#13 = APPROVAL_STATUS ( 'not_yet_approved' ) ;
#14 = CARTESIAN_POINT ( 'NONE',  ( 0.0000000000000000000, 0.0000000000000000000, 0.0000000000000000000 ) ) ;
#15 = PERSON_AND_ORGANIZATION ( #133, #93 ) ;
#16 = FACE_OUTER_BOUND ( 'NONE', #23, .T. ) ;
#17 = MECHANICAL_CONTEXT ( 'NONE', #136, 'mechanical' ) ;
#18 = DIRECTION ( 'NONE',  ( -3.491481338843133355E-15, 1.224646799147353207E-16, -1.000000000000000000 ) ) ;
#19 = APPROVAL ( #63, 'UNSPECIFIED' ) ;
#20 = PERSON_AND_ORGANIZATION_ROLE ( 'design_owner' ) ;
#21 = SHAPE_DEFINITION_REPRESENTATION ( #78, #67 ) ;
#22 = APPROVAL_ROLE ( '' ) ;
#23 = EDGE_LOOP ( 'NONE', ( #26 ) ) ;
#24 = AXIS2_PLACEMENT_3D ( 'NONE', #167, #43, #88 ) ;
#25 = CIRCLE ( 'NONE', #42, 2.999999999999996447 ) ;
#26 = ORIENTED_EDGE ( 'NONE', *, *, #202, .F. ) ;
#27 = CIRCLE ( 'NONE', #143, 2.999999999999996447 ) ;
#28 = DIRECTION ( 'NONE',  ( -3.491481338843133355E-15, 1.224646799147353207E-16, -1.000000000000000000 ) ) ;
#29 =( NAMED_UNIT ( * ) SI_UNIT ( $, .STERADIAN. ) SOLID_ANGLE_UNIT ( ) );
#30 = DIRECTION ( 'NONE',  ( 0.0000000000000000000, 1.000000000000000000, 0.0000000000000000000 ) ) ;
#31 = PERSON_AND_ORGANIZATION ( #133, #93 ) ;
#32 = APPROVAL_PERSON_ORGANIZATION ( #89, #193, #22 ) ;
#33 = COORDINATED_UNIVERSAL_TIME_OFFSET ( 1, 0, .AHEAD. ) ;
#34 = PERSON_AND_ORGANIZATION_ROLE ( 'design_supplier' ) ;
#35 = LOCAL_TIME ( 14, 57, 8.000000000000000000, #176 ) ;
#36 = EDGE_LOOP ( 'NONE', ( #181 ) ) ;
#37 = PERSON_AND_ORGANIZATION ( #133, #93 ) ;
#38 = CLOSED_SHELL ( 'NONE', ( #129, #123, #127, #66 ) ) ;
#39 = AXIS2_PLACEMENT_3D ( 'NONE', #7, #116, #103 ) ;
#40 = EDGE_LOOP ( 'NONE', ( #134 ) ) ;
#41 = FACE_OUTER_BOUND ( 'NONE', #36, .T. ) ;
#42 = AXIS2_PLACEMENT_3D ( 'NONE', #141, #46, #168 ) ;
#43 = DIRECTION ( 'NONE',  ( -3.491481338843133355E-15, 1.224646799147353207E-16, -1.000000000000000000 ) ) ;
#44 = PLANE ( 'NONE',  #1 ) ;
#45 = PLANE ( 'NONE',  #198 ) ;
#46 = DIRECTION ( 'NONE',  ( -3.491481338843133355E-15, 1.224646799147353207E-16, -1.000000000000000000 ) ) ;
#47 =( LENGTH_UNIT ( ) NAMED_UNIT ( * ) SI_UNIT ( .MILLI., .METRE. ) );
#48 = DIRECTION ( 'NONE',  ( 0.0000000000000000000, 1.000000000000000000, 0.0000000000000000000 ) ) ;
#49 = APPLICATION_PROTOCOL_DEFINITION ( 'international standard', 'config_control_design', 1994, #104 ) ;
#50 = CC_DESIGN_PERSON_AND_ORGANIZATION_ASSIGNMENT ( #15, #20, ( #191 ) ) ;
#51 = PERSON_AND_ORGANIZATION ( #133, #93 ) ;
#52 = DATE_AND_TIME ( #8, #35 ) ;
#53 = CC_DESIGN_PERSON_AND_ORGANIZATION_ASSIGNMENT ( #113, #197, ( #120 ) ) ;
#54 = EDGE_LOOP ( 'NONE', ( #105 ) ) ;
#55 = CARTESIAN_POINT ( 'NONE',  ( 3.107418391570388560E-13, -1.089935651241144239E-14, 89.00000000000000000 ) ) ;
#56 = CARTESIAN_POINT ( 'NONE',  ( 0.0000000000000000000, 0.0000000000000000000, 0.0000000000000000000 ) ) ;
#57 = DIRECTION ( 'NONE',  ( -3.491481338843133355E-15, 1.224646799147353207E-16, -1.000000000000000000 ) ) ;
#58 = CARTESIAN_POINT ( 'NONE',  ( 3.107418391570388560E-13, 1.724723750061120922E-32, 89.00000000000000000 ) ) ;
#59 = VERTEX_POINT ( 'NONE', #173 ) ;
#60 = FACE_BOUND ( 'NONE', #179, .T. ) ;
#61 = DIRECTION ( 'NONE',  ( -4.275831445896958607E-31, -1.000000000000000000, -1.224646799147353207E-16 ) ) ;
#62 = APPLICATION_PROTOCOL_DEFINITION ( 'international standard', 'config_control_design', 1994, #136 ) ;
#63 = APPROVAL_STATUS ( 'not_yet_approved' ) ;
#64 = CONICAL_SURFACE ( 'NONE', #138, 2.300000000000001155, 0.7853981633974442822 ) ;
#65 = COORDINATED_UNIVERSAL_TIME_OFFSET ( 1, 0, .AHEAD. ) ;
#66 = ADVANCED_FACE ( 'NONE', ( #139 ), #45, .F. ) ;
#67 = ADVANCED_BREP_SHAPE_REPRESENTATION ( '960174', ( #121, #194, #114 ), #77 ) ;
#68 = APPROVAL_DATE_TIME ( #52, #193 ) ;
#69 = LOCAL_TIME ( 14, 57, 8.000000000000000000, #82 ) ;
#70 = ADVANCED_FACE ( 'NONE', ( #12, #41 ), #94, .T. ) ;
#71 = ORIENTED_EDGE ( 'NONE', *, *, #81, .F. ) ;
#72 = DIRECTION ( 'NONE',  ( 4.275831445896958607E-31, 1.000000000000000000, 1.224646799147353207E-16 ) ) ;
#73 = FACE_OUTER_BOUND ( 'NONE', #40, .T. ) ;
#74 = VERTEX_POINT ( 'NONE', #109 ) ;
#75 = PLANE ( 'NONE',  #182 ) ;
#76 = DIRECTION ( 'NONE',  ( -4.275831445896958607E-31, -1.000000000000000000, -1.224646799147353207E-16 ) ) ;
#77 =( GEOMETRIC_REPRESENTATION_CONTEXT ( 3 ) GLOBAL_UNCERTAINTY_ASSIGNED_CONTEXT ( ( #186 ) ) GLOBAL_UNIT_ASSIGNED_CONTEXT ( ( #47, #144, #29 ) ) REPRESENTATION_CONTEXT ( 'NONE', 'WORKASPACE' ) );
#78 = PRODUCT_DEFINITION_SHAPE ( 'NONE', 'NONE',  #120 ) ;
#79 = CARTESIAN_POINT ( 'NONE',  ( 3.082978022198486311E-13, -1.081363123647112810E-14, 88.29999999999998295 ) ) ;
#80 = APPROVAL_PERSON_ORGANIZATION ( #6, #100, #149 ) ;
#81 = EDGE_CURVE ( 'NONE', #74, #74, #96, .T. ) ;
#82 = COORDINATED_UNIVERSAL_TIME_OFFSET ( 1, 0, .AHEAD. ) ;
#83 = DIRECTION ( 'NONE',  ( 0.0000000000000000000, 1.000000000000000000, 0.0000000000000000000 ) ) ;
#84 = PERSON_AND_ORGANIZATION_ROLE ( 'creator' ) ;
#85 = EDGE_LOOP ( 'NONE', ( #151 ) ) ;
#86 = EDGE_CURVE ( 'NONE', #158, #158, #171, .T. ) ;
#87 = ORIENTED_EDGE ( 'NONE', *, *, #81, .T. ) ;
#88 = DIRECTION ( 'NONE',  ( 5.135813185032641787E-31, 1.000000000000000000, 1.445602896647342861E-16 ) ) ;
#89 = PERSON_AND_ORGANIZATION ( #133, #93 ) ;
#90 = DIRECTION ( 'NONE',  ( -3.491481338843133355E-15, 1.224646799147353207E-16, -1.000000000000000000 ) ) ;
#91 = CC_DESIGN_PERSON_AND_ORGANIZATION_ASSIGNMENT ( #51, #174, ( #178 ) ) ;
#92 = FACE_OUTER_BOUND ( 'NONE', #54, .T. ) ;
#93 = ORGANIZATION ( 'UNSPECIFIED', 'UNSPECIFIED', '' ) ;
#94 = CYLINDRICAL_SURFACE ( 'NONE', #156, 2.999999999999994227 ) ;
#95 = CARTESIAN_POINT ( 'NONE',  ( 3.107418391570388560E-13, -1.089935651241144239E-14, 89.00000000000000000 ) ) ;
#96 = CIRCLE ( 'NONE', #147, 2.300000000000001155 ) ;
#97 = CALENDAR_DATE ( 2021, 13, 10 ) ;
#98 = DATE_AND_TIME ( #99, #135 ) ;
#99 = CALENDAR_DATE ( 2021, 13, 10 ) ;
#100 = APPROVAL ( #131, 'UNSPECIFIED' ) ;
#101 = COORDINATED_UNIVERSAL_TIME_OFFSET ( 1, 0, .AHEAD. ) ;
#102 = APPROVAL_DATE_TIME ( #160, #100 ) ;
#103 = DIRECTION ( 'NONE',  ( -5.135813185032641787E-31, -1.000000000000000000, -1.445602896647342861E-16 ) ) ;
#104 = APPLICATION_CONTEXT ( 'configuration controlled 3d designs of mechanical parts and assemblies' ) ;
#105 = ORIENTED_EDGE ( 'NONE', *, *, #5, .T. ) ;
#106 = DIRECTION ( 'NONE',  ( 4.275831445896959482E-31, 1.000000000000000000, 1.224646799147353454E-16 ) ) ;
#107 = LOCAL_TIME ( 14, 57, 8.000000000000000000, #65 ) ;
#108 = VERTEX_POINT ( 'NONE', #142 ) ;
#109 = CARTESIAN_POINT ( 'NONE',  ( 3.107418391570388560E-13, 2.299999999999990496, 89.00000000000000000 ) ) ;
#110 = FACE_OUTER_BOUND ( 'NONE', #199, .T. ) ;
#111 = DIRECTION ( 'NONE',  ( 1.000000000000000000, 0.0000000000000000000, 0.0000000000000000000 ) ) ;
#112 = DATE_AND_TIME ( #145, #150 ) ;
#113 = PERSON_AND_ORGANIZATION ( #133, #93 ) ;
#114 = AXIS2_PLACEMENT_3D ( 'NONE', #189, #140, #111 ) ;
#115 = DATE_TIME_ROLE ( 'creation_date' ) ;
#116 = DIRECTION ( 'NONE',  ( 3.491481338843133355E-15, -1.224646799147353207E-16, 1.000000000000000000 ) ) ;
#117 = CC_DESIGN_PERSON_AND_ORGANIZATION_ASSIGNMENT ( #37, #34, ( #4 ) ) ;
#118 = CC_DESIGN_APPROVAL ( #193, ( #120 ) ) ;
#119 = EDGE_LOOP ( 'NONE', ( #200 ) ) ;
#120 = PRODUCT_DEFINITION ( 'UNKNOWN', '', #4, #155 ) ;
#121 = MANIFOLD_SOLID_BREP ( 'Corps-Déplacer/Copier1[1]', #38 ) ;
#122 = CC_DESIGN_APPROVAL ( #100, ( #178 ) ) ;
#123 = ADVANCED_FACE ( 'NONE', ( #110, #73 ), #137, .T. ) ;
#124 = VERTEX_POINT ( 'NONE', #187 ) ;
#125 = DIRECTION ( 'NONE',  ( -3.491481338843133355E-15, 1.224646799147353207E-16, -1.000000000000000000 ) ) ;
#126 = CIRCLE ( 'NONE', #159, 3.000000000000001776 ) ;
#127 = ADVANCED_FACE ( 'NONE', ( #16, #60 ), #64, .T. ) ;
#128 = DIRECTION ( 'NONE',  ( 3.491481338843133355E-15, -1.224646799147353207E-16, 1.000000000000000000 ) ) ;
#129 = ADVANCED_FACE ( 'NONE', ( #92 ), #75, .F. ) ;
#130 = CONICAL_SURFACE ( 'NONE', #39, 2.999999999999992450, 1.221730476396026610 ) ;
#131 = APPROVAL_STATUS ( 'not_yet_approved' ) ;
#132 = ORIENTED_EDGE ( 'NONE', *, *, #165, .F. ) ;
#133 = PERSON ( 'UNSPECIFIED', 'UNSPECIFIED', 'UNSPECIFIED', ('UNSPECIFIED'), ('UNSPECIFIED'), ('UNSPECIFIED') ) ;
#134 = ORIENTED_EDGE ( 'NONE', *, *, #202, .T. ) ;
#135 = LOCAL_TIME ( 14, 57, 8.000000000000000000, #33 ) ;
#136 = APPLICATION_CONTEXT ( 'configuration controlled 3d designs of mechanical parts and assemblies' ) ;
#137 = CYLINDRICAL_SURFACE ( 'NONE', #190, 2.999999999999999112 ) ;
#138 = AXIS2_PLACEMENT_3D ( 'NONE', #95, #18, #48 ) ;
#139 = FACE_OUTER_BOUND ( 'NONE', #166, .T. ) ;
#140 = DIRECTION ( 'NONE',  ( 0.0000000000000000000, 0.0000000000000000000, 1.000000000000000000 ) ) ;
#141 = CARTESIAN_POINT ( 'NONE',  ( 1.361677722148822135E-13, -4.776122516674677878E-15, 39.00000000000000000 ) ) ;
#142 = CARTESIAN_POINT ( 'NONE',  ( 3.082978022198486311E-13, 2.999999999999991118, 88.29999999999998295 ) ) ;
#143 = AXIS2_PLACEMENT_3D ( 'NONE', #154, #162, #83 ) ;
#144 =( NAMED_UNIT ( * ) PLANE_ANGLE_UNIT ( ) SI_UNIT ( $, .RADIAN. ) );
#145 = CALENDAR_DATE ( 2021, 13, 10 ) ;
#146 = SECURITY_CLASSIFICATION_LEVEL ( 'unclassified' ) ;
#147 = AXIS2_PLACEMENT_3D ( 'NONE', #55, #184, #169 ) ;
#148 = FACE_OUTER_BOUND ( 'NONE', #119, .T. ) ;
#149 = APPROVAL_ROLE ( '' ) ;
#150 = LOCAL_TIME ( 14, 57, 8.000000000000000000, #101 ) ;
#151 = ORIENTED_EDGE ( 'NONE', *, *, #86, .F. ) ;
#152 = CC_DESIGN_DATE_AND_TIME_ASSIGNMENT ( #98, #196, ( #178 ) ) ;
#153 = EDGE_LOOP ( 'NONE', ( #132 ) ) ;
#154 = CARTESIAN_POINT ( 'NONE',  ( 1.361677722148822135E-13, -4.776122516674677878E-15, 39.00000000000000000 ) ) ;
#155 = DESIGN_CONTEXT ( 'detailed design', #104, 'design' ) ;
#156 = AXIS2_PLACEMENT_3D ( 'NONE', #14, #125, #106 ) ;
#157 = DIRECTION ( 'NONE',  ( 4.275831445896958607E-31, 1.000000000000000000, 1.224646799147353207E-16 ) ) ;
#158 = VERTEX_POINT ( 'NONE', #2 ) ;
#159 = AXIS2_PLACEMENT_3D ( 'NONE', #79, #57, #30 ) ;
#160 = DATE_AND_TIME ( #97, #69 ) ;
#161 = DATE_AND_TIME ( #3, #107 ) ;
#162 = DIRECTION ( 'NONE',  ( -3.491481338843133355E-15, 1.224646799147353207E-16, -1.000000000000000000 ) ) ;
#163 = CLOSED_SHELL ( 'NONE', ( #70, #170, #10 ) ) ;
#164 = CC_DESIGN_SECURITY_CLASSIFICATION ( #178, ( #4 ) ) ;
#165 = EDGE_CURVE ( 'NONE', #59, #59, #25, .T. ) ;
#166 = EDGE_LOOP ( 'NONE', ( #71 ) ) ;
#167 = CARTESIAN_POINT ( 'NONE',  ( 3.812385842504467288E-15, -1.337204947137065176E-16, 1.091910702798618571 ) ) ;
#168 = DIRECTION ( 'NONE',  ( 0.0000000000000000000, 1.000000000000000000, 0.0000000000000000000 ) ) ;
#169 = DIRECTION ( 'NONE',  ( 0.0000000000000000000, 1.000000000000000000, 0.0000000000000000000 ) ) ;
#170 = ADVANCED_FACE ( 'NONE', ( #201 ), #44, .T. ) ;
#171 = CIRCLE ( 'NONE', #24, 2.999999999999992450 ) ;
#172 = CARTESIAN_POINT ( 'NONE',  ( 1.361677722148822135E-13, 2.249639673992776833E-32, 39.00000000000000000 ) ) ;
#173 = CARTESIAN_POINT ( 'NONE',  ( 1.361677722148822135E-13, 2.999999999999992006, 39.00000000000000000 ) ) ;
#174 = PERSON_AND_ORGANIZATION_ROLE ( 'classification_officer' ) ;
#175 = APPROVAL_DATE_TIME ( #161, #19 ) ;
#176 = COORDINATED_UNIVERSAL_TIME_OFFSET ( 1, 0, .AHEAD. ) ;
#177 = PRODUCT_RELATED_PRODUCT_CATEGORY ( 'detail', '', ( #191 ) ) ;
#178 = SECURITY_CLASSIFICATION ( '', '', #146 ) ;
#179 = EDGE_LOOP ( 'NONE', ( #87 ) ) ;
#180 = PERSON_AND_ORGANIZATION ( #133, #93 ) ;
#181 = ORIENTED_EDGE ( 'NONE', *, *, #165, .T. ) ;
#182 = AXIS2_PLACEMENT_3D ( 'NONE', #203, #192, #61 ) ;
#183 = ORIENTED_EDGE ( 'NONE', *, *, #5, .F. ) ;
#184 = DIRECTION ( 'NONE',  ( -3.491481338843133355E-15, 1.224646799147353207E-16, -1.000000000000000000 ) ) ;
#185 = CC_DESIGN_APPROVAL ( #19, ( #4 ) ) ;
#186 = UNCERTAINTY_MEASURE_WITH_UNIT (LENGTH_MEASURE( 1.000000000000000082E-05 ), #47, 'distance_accuracy_value', 'NONE');
#187 = CARTESIAN_POINT ( 'NONE',  ( 1.361677722148822135E-13, 2.999999999999992006, 39.00000000000000000 ) ) ;
#188 = CC_DESIGN_DATE_AND_TIME_ASSIGNMENT ( #112, #115, ( #120 ) ) ;
#189 = CARTESIAN_POINT ( 'NONE',  ( 0.0000000000000000000, 0.0000000000000000000, 0.0000000000000000000 ) ) ;
#190 = AXIS2_PLACEMENT_3D ( 'NONE', #56, #28, #157 ) ;
#191 = PRODUCT ( '960174', '960174', '', ( #17 ) ) ;
#192 = DIRECTION ( 'NONE',  ( 3.491481338843133355E-15, -1.224646799147353207E-16, 1.000000000000000000 ) ) ;
#193 = APPROVAL ( #13, 'UNSPECIFIED' ) ;
#194 = MANIFOLD_SOLID_BREP ( 'Corps-Déplacer/Copier1[2]', #163 ) ;
#195 = APPROVAL_ROLE ( '' ) ;
#196 = DATE_TIME_ROLE ( 'classification_date' ) ;
#197 = PERSON_AND_ORGANIZATION_ROLE ( 'creator' ) ;
#198 = AXIS2_PLACEMENT_3D ( 'NONE', #58, #90, #72 ) ;
#199 = EDGE_LOOP ( 'NONE', ( #183 ) ) ;
#200 = ORIENTED_EDGE ( 'NONE', *, *, #86, .T. ) ;
#201 = FACE_OUTER_BOUND ( 'NONE', #153, .T. ) ;
#202 = EDGE_CURVE ( 'NONE', #108, #108, #126, .T. ) ;
#203 = CARTESIAN_POINT ( 'NONE',  ( 1.361677722148822135E-13, 2.249639673992776833E-32, 39.00000000000000000 ) ) ;
ENDSEC;
END-ISO-10303-21;
