ISO-10303-21;
HEADER;
FILE_DESCRIPTION (( 'STEP AP203' ),
    '1' );
FILE_NAME ('960173.step',
    '2021-10-13T12:57:07',
    ( '' ),
    ( '' ),
    'SwSTEP 2.0',
    'SolidWorks 2019',
    '' );
FILE_SCHEMA (( 'CONFIG_CONTROL_DESIGN' ));
ENDSEC;

DATA;
#1 = FACE_OUTER_BOUND ( 'NONE', #51, .T. ) ;
#2 = ORIENTED_EDGE ( 'NONE', *, *, #180, .F. ) ;
#3 = AXIS2_PLACEMENT_3D ( 'NONE', #76, #207, #225 ) ;
#4 = CARTESIAN_POINT ( 'NONE',  ( 3.082978022198486311E-13, -1.081363123647112810E-14, 88.29999999999998295 ) ) ;
#5 = VERTEX_POINT ( 'NONE', #234 ) ;
#6 = PRODUCT_DEFINITION ( 'UNKNOWN', '', #161, #67 ) ;
#7 = PERSON_AND_ORGANIZATION ( #219, #94 ) ;
#8 = CARTESIAN_POINT ( 'NONE',  ( 1.316288464743861464E-13, -2.900000000000023004, 37.70000000000000284 ) ) ;
#9 = APPLICATION_PROTOCOL_DEFINITION ( 'international standard', 'config_control_design', 1994, #77 ) ;
#10 = AXIS2_PLACEMENT_3D ( 'NONE', #18, #134, #54 ) ;
#11 = PERSON_AND_ORGANIZATION ( #219, #94 ) ;
#12 = APPROVAL_ROLE ( '' ) ;
#13 = ORIENTED_EDGE ( 'NONE', *, *, #147, .T. ) ;
#14 = CALENDAR_DATE ( 2021, 13, 10 ) ;
#15 = ADVANCED_FACE ( 'NONE', ( #233 ), #112, .T. ) ;
#16 = FACE_OUTER_BOUND ( 'NONE', #17, .T. ) ;
#17 = EDGE_LOOP ( 'NONE', ( #37 ) ) ;
#18 = CARTESIAN_POINT ( 'NONE',  ( 1.518794382396762820E-13, -1.882321035732232996E-14, 43.50000000000000000 ) ) ;
#19 = LOCAL_TIME ( 14, 57, 7.000000000000000000, #141 ) ;
#20 = FACE_OUTER_BOUND ( 'NONE', #133, .T. ) ;
#21 = DIRECTION ( 'NONE',  ( 3.491481338843133355E-15, -4.327174794786742882E-16, 1.000000000000000000 ) ) ;
#22 = ORIENTED_EDGE ( 'NONE', *, *, #180, .T. ) ;
#23 = DIRECTION ( 'NONE',  ( -4.275831445896958607E-31, -1.000000000000000000, -1.224646799147353207E-16 ) ) ;
#24 = ADVANCED_FACE ( 'NONE', ( #82, #124 ), #178, .F. ) ;
#25 = DIRECTION ( 'NONE',  ( -3.491481338843133355E-15, 4.327174794786742882E-16, -1.000000000000000000 ) ) ;
#26 = ADVANCED_FACE ( 'NONE', ( #104, #16 ), #188, .T. ) ;
#27 = DATE_AND_TIME ( #195, #19 ) ;
#28 = MANIFOLD_SOLID_BREP ( 'Corps-Déplacer/Copier1[1]', #71 ) ;
#29 = DATE_AND_TIME ( #162, #88 ) ;
#30 = PERSON_AND_ORGANIZATION ( #219, #94 ) ;
#31 = ADVANCED_FACE ( 'NONE', ( #114 ), #242, .T. ) ;
#32 = SHAPE_DEFINITION_REPRESENTATION ( #46, #174 ) ;
#33 = CIRCLE ( 'NONE', #183, 2.900000000000006128 ) ;
#34 = DATE_TIME_ROLE ( 'classification_date' ) ;
#35 = DIRECTION ( 'NONE',  ( 1.510825004591028205E-30, 1.000000000000000000, 4.327174794786743375E-16 ) ) ;
#36 = DIRECTION ( 'NONE',  ( -3.491481338843133355E-15, 1.224646799147353207E-16, -1.000000000000000000 ) ) ;
#37 = ORIENTED_EDGE ( 'NONE', *, *, #197, .F. ) ;
#38 = PRODUCT_RELATED_PRODUCT_CATEGORY ( 'detail', '', ( #90 ) ) ;
#39 = CARTESIAN_POINT ( 'NONE',  ( 1.316288464743861464E-13, -1.631344897634602098E-14, 37.70000000000000284 ) ) ;
#40 = CYLINDRICAL_SURFACE ( 'NONE', #155, 2.999999999999999112 ) ;
#41 = CC_DESIGN_APPROVAL ( #170, ( #235 ) ) ;
#42 = ADVANCED_FACE ( 'NONE', ( #79, #228 ), #40, .T. ) ;
#43 = DIRECTION ( 'NONE',  ( 0.0000000000000000000, 0.0000000000000000000, 1.000000000000000000 ) ) ;
#44 = PERSON_AND_ORGANIZATION_ROLE ( 'design_owner' ) ;
#45 = APPROVAL_DATE_TIME ( #131, #170 ) ;
#46 = PRODUCT_DEFINITION_SHAPE ( 'NONE', 'NONE',  #6 ) ;
#47 = AXIS2_PLACEMENT_3D ( 'NONE', #223, #185, #243 ) ;
#48 = PERSON_AND_ORGANIZATION ( #219, #94 ) ;
#49 = APPROVAL_ROLE ( '' ) ;
#50 = AXIS2_PLACEMENT_3D ( 'NONE', #101, #196, #230 ) ;
#51 = EDGE_LOOP ( 'NONE', ( #60 ) ) ;
#52 = ORIENTED_EDGE ( 'NONE', *, *, #85, .T. ) ;
#53 = UNCERTAINTY_MEASURE_WITH_UNIT (LENGTH_MEASURE( 1.000000000000000082E-05 ), #143, 'distance_accuracy_value', 'NONE');
#54 = DIRECTION ( 'NONE',  ( 0.0000000000000000000, 1.000000000000000000, 0.0000000000000000000 ) ) ;
#55 = ORIENTED_EDGE ( 'NONE', *, *, #128, .F. ) ;
#56 = DIRECTION ( 'NONE',  ( -3.491481338843133355E-15, 1.224646799147353207E-16, -1.000000000000000000 ) ) ;
#57 = CC_DESIGN_PERSON_AND_ORGANIZATION_ASSIGNMENT ( #100, #44, ( #90 ) ) ;
#58 = ORIENTED_EDGE ( 'NONE', *, *, #128, .T. ) ;
#59 = FACE_OUTER_BOUND ( 'NONE', #149, .T. ) ;
#60 = ORIENTED_EDGE ( 'NONE', *, *, #197, .T. ) ;
#61 = CARTESIAN_POINT ( 'NONE',  ( 0.0000000000000000000, 0.0000000000000000000, 0.0000000000000000000 ) ) ;
#62 = ADVANCED_FACE ( 'NONE', ( #20, #150 ), #217, .T. ) ;
#63 = FACE_OUTER_BOUND ( 'NONE', #222, .T. ) ;
#64 = AXIS2_PLACEMENT_3D ( 'NONE', #190, #152, #120 ) ;
#65 = CARTESIAN_POINT ( 'NONE',  ( 1.316288464743861464E-13, -2.900000000000023004, 37.70000000000000284 ) ) ;
#66 = AXIS2_PLACEMENT_3D ( 'NONE', #4, #56, #203 ) ;
#67 = DESIGN_CONTEXT ( 'detailed design', #144, 'design' ) ;
#68 = APPROVAL_DATE_TIME ( #92, #156 ) ;
#69 = LOCAL_TIME ( 14, 57, 7.000000000000000000, #218 ) ;
#70 = APPROVAL_STATUS ( 'not_yet_approved' ) ;
#71 = CLOSED_SHELL ( 'NONE', ( #42, #62, #107, #26, #24, #213 ) ) ;
#72 = ORIENTED_EDGE ( 'NONE', *, *, #85, .F. ) ;
#73 = CARTESIAN_POINT ( 'NONE',  ( 0.0000000000000000000, 0.0000000000000000000, 0.0000000000000000000 ) ) ;
#74 = EDGE_LOOP ( 'NONE', ( #58 ) ) ;
#75 = PLANE ( 'NONE',  #117 ) ;
#76 = CARTESIAN_POINT ( 'NONE',  ( 1.316288464743861464E-13, 2.249639673992776833E-32, 37.70000000000000284 ) ) ;
#77 = APPLICATION_CONTEXT ( 'configuration controlled 3d designs of mechanical parts and assemblies' ) ;
#78 = CC_DESIGN_PERSON_AND_ORGANIZATION_ASSIGNMENT ( #11, #199, ( #235 ) ) ;
#79 = FACE_OUTER_BOUND ( 'NONE', #151, .T. ) ;
#80 =( NAMED_UNIT ( * ) SI_UNIT ( $, .STERADIAN. ) SOLID_ANGLE_UNIT ( ) );
#81 = AXIS2_PLACEMENT_3D ( 'NONE', #98, #209, #35 ) ;
#82 = FACE_OUTER_BOUND ( 'NONE', #137, .T. ) ;
#83 = PERSON_AND_ORGANIZATION_ROLE ( 'creator' ) ;
#84 = DIRECTION ( 'NONE',  ( -3.491481338843133355E-15, 4.327174794786742882E-16, -1.000000000000000000 ) ) ;
#85 = EDGE_CURVE ( 'NONE', #127, #127, #184, .T. ) ;
#86 = VERTEX_POINT ( 'NONE', #8 ) ;
#87 = DIRECTION ( 'NONE',  ( 1.000000000000000000, 0.0000000000000000000, 0.0000000000000000000 ) ) ;
#88 = LOCAL_TIME ( 14, 57, 7.000000000000000000, #123 ) ;
#89 = EDGE_CURVE ( 'NONE', #231, #231, #109, .T. ) ;
#90 = PRODUCT ( '960173', '960173', '', ( #193 ) ) ;
#91 = COORDINATED_UNIVERSAL_TIME_OFFSET ( 1, 0, .AHEAD. ) ;
#92 = DATE_AND_TIME ( #236, #69 ) ;
#93 = EDGE_LOOP ( 'NONE', ( #226 ) ) ;
#94 = ORGANIZATION ( 'UNSPECIFIED', 'UNSPECIFIED', '' ) ;
#95 = EDGE_LOOP ( 'NONE', ( #194 ) ) ;
#96 = DIRECTION ( 'NONE',  ( 0.0000000000000000000, -1.000000000000000000, 0.0000000000000000000 ) ) ;
#97 = DIRECTION ( 'NONE',  ( 0.0000000000000000000, 1.000000000000000000, 0.0000000000000000000 ) ) ;
#98 = CARTESIAN_POINT ( 'NONE',  ( 0.0000000000000000000, 0.0000000000000000000, 0.0000000000000000000 ) ) ;
#99 = DIRECTION ( 'NONE',  ( -3.491481338843133355E-15, 1.224646799147353207E-16, -1.000000000000000000 ) ) ;
#100 = PERSON_AND_ORGANIZATION ( #219, #94 ) ;
#101 = CARTESIAN_POINT ( 'NONE',  ( 3.812385842504467288E-15, -1.337204947137065176E-16, 1.091910702798618571 ) ) ;
#102 = APPROVAL_DATE_TIME ( #29, #237 ) ;
#103 = CC_DESIGN_SECURITY_CLASSIFICATION ( #235, ( #161 ) ) ;
#104 = FACE_OUTER_BOUND ( 'NONE', #224, .T. ) ;
#105 = DATE_TIME_ROLE ( 'creation_date' ) ;
#106 = CARTESIAN_POINT ( 'NONE',  ( 3.107418391570388560E-13, 2.299999999999990496, 89.00000000000000000 ) ) ;
#107 = ADVANCED_FACE ( 'NONE', ( #63 ), #118, .F. ) ;
#108 = AXIS2_PLACEMENT_3D ( 'NONE', #177, #43, #87 ) ;
#109 = CIRCLE ( 'NONE', #66, 3.000000000000001776 ) ;
#110 = SECURITY_CLASSIFICATION_LEVEL ( 'unclassified' ) ;
#111 = CC_DESIGN_PERSON_AND_ORGANIZATION_ASSIGNMENT ( #48, #238, ( #161 ) ) ;
#112 = CONICAL_SURFACE ( 'NONE', #50, 2.999999999999992450, 1.221730476396026610 ) ;
#113 = ORIENTED_EDGE ( 'NONE', *, *, #175, .T. ) ;
#114 = FACE_OUTER_BOUND ( 'NONE', #93, .T. ) ;
#115 = CC_DESIGN_DATE_AND_TIME_ASSIGNMENT ( #165, #34, ( #235 ) ) ;
#116 = DIRECTION ( 'NONE',  ( 4.275831445896958607E-31, 1.000000000000000000, 1.224646799147353207E-16 ) ) ;
#117 = AXIS2_PLACEMENT_3D ( 'NONE', #154, #119, #23 ) ;
#118 = PLANE ( 'NONE',  #140 ) ;
#119 = DIRECTION ( 'NONE',  ( 3.491481338843133355E-15, -1.224646799147353207E-16, 1.000000000000000000 ) ) ;
#120 = DIRECTION ( 'NONE',  ( 0.0000000000000000000, 1.000000000000000000, 0.0000000000000000000 ) ) ;
#121 = LOCAL_TIME ( 14, 57, 7.000000000000000000, #201 ) ;
#122 = CARTESIAN_POINT ( 'NONE',  ( 1.518794382396762820E-13, 2.899999999999994138, 43.50000000000000000 ) ) ;
#123 = COORDINATED_UNIVERSAL_TIME_OFFSET ( 1, 0, .AHEAD. ) ;
#124 = FACE_OUTER_BOUND ( 'NONE', #95, .T. ) ;
#125 = DIRECTION ( 'NONE',  ( 1.510825004591027679E-30, 1.000000000000000000, 4.327174794786742882E-16 ) ) ;
#126 = CARTESIAN_POINT ( 'NONE',  ( 3.082978022198486311E-13, 2.999999999999991118, 88.29999999999998295 ) ) ;
#127 = VERTEX_POINT ( 'NONE', #122 ) ;
#128 = EDGE_CURVE ( 'NONE', #232, #232, #221, .T. ) ;
#129 = CC_DESIGN_APPROVAL ( #237, ( #6 ) ) ;
#130 = PERSON_AND_ORGANIZATION ( #219, #94 ) ;
#131 = DATE_AND_TIME ( #220, #206 ) ;
#132 = CC_DESIGN_APPROVAL ( #156, ( #161 ) ) ;
#133 = EDGE_LOOP ( 'NONE', ( #157 ) ) ;
#134 = DIRECTION ( 'NONE',  ( -3.491481338843133355E-15, 4.327174794786742882E-16, -1.000000000000000000 ) ) ;
#135 = CARTESIAN_POINT ( 'NONE',  ( 3.107418391570388560E-13, 1.724723750061120922E-32, 89.00000000000000000 ) ) ;
#136 = CARTESIAN_POINT ( 'NONE',  ( 1.316288464743861464E-13, -1.631344897634602098E-14, 37.70000000000000284 ) ) ;
#137 = EDGE_LOOP ( 'NONE', ( #72 ) ) ;
#138 = ADVANCED_FACE ( 'NONE', ( #59, #227 ), #191, .T. ) ;
#139 = CARTESIAN_POINT ( 'NONE',  ( 3.685306314421002716E-15, -1.292631448899169306E-16, 1.055513679372003022 ) ) ;
#140 = AXIS2_PLACEMENT_3D ( 'NONE', #135, #36, #116 ) ;
#141 = COORDINATED_UNIVERSAL_TIME_OFFSET ( 1, 0, .AHEAD. ) ;
#142 = CIRCLE ( 'NONE', #215, 2.999999999999999112 ) ;
#143 =( LENGTH_UNIT ( ) NAMED_UNIT ( * ) SI_UNIT ( .MILLI., .METRE. ) );
#144 = APPLICATION_CONTEXT ( 'configuration controlled 3d designs of mechanical parts and assemblies' ) ;
#145 = CIRCLE ( 'NONE', #164, 2.900000000000006128 ) ;
#146 = PERSON_AND_ORGANIZATION_ROLE ( 'design_supplier' ) ;
#147 = EDGE_CURVE ( 'NONE', #5, #5, #142, .T. ) ;
#148 = APPROVAL_PERSON_ORGANIZATION ( #30, #170, #12 ) ;
#149 = EDGE_LOOP ( 'NONE', ( #113 ) ) ;
#150 = FACE_BOUND ( 'NONE', #74, .T. ) ;
#151 = EDGE_LOOP ( 'NONE', ( #13 ) ) ;
#152 = DIRECTION ( 'NONE',  ( -3.491481338843133355E-15, 1.224646799147353207E-16, -1.000000000000000000 ) ) ;
#153 = EDGE_LOOP ( 'NONE', ( #22 ) ) ;
#154 = CARTESIAN_POINT ( 'NONE',  ( 1.316288464743861464E-13, 2.249639673992776833E-32, 37.70000000000000284 ) ) ;
#155 = AXIS2_PLACEMENT_3D ( 'NONE', #73, #158, #210 ) ;
#156 = APPROVAL ( #216, 'UNSPECIFIED' ) ;
#157 = ORIENTED_EDGE ( 'NONE', *, *, #89, .F. ) ;
#158 = DIRECTION ( 'NONE',  ( -3.491481338843133355E-15, 1.224646799147353207E-16, -1.000000000000000000 ) ) ;
#159 = CC_DESIGN_DATE_AND_TIME_ASSIGNMENT ( #27, #105, ( #6 ) ) ;
#160 = APPROVAL_STATUS ( 'not_yet_approved' ) ;
#161 = PRODUCT_DEFINITION_FORMATION_WITH_SPECIFIED_SOURCE ( 'ANY', '', #90, .NOT_KNOWN. ) ;
#162 = CALENDAR_DATE ( 2021, 13, 10 ) ;
#163 = PERSON_AND_ORGANIZATION ( #219, #94 ) ;
#164 = AXIS2_PLACEMENT_3D ( 'NONE', #139, #171, #173 ) ;
#165 = DATE_AND_TIME ( #14, #121 ) ;
#166 =( GEOMETRIC_REPRESENTATION_CONTEXT ( 3 ) GLOBAL_UNCERTAINTY_ASSIGNED_CONTEXT ( ( #53 ) ) GLOBAL_UNIT_ASSIGNED_CONTEXT ( ( #143, #212, #80 ) ) REPRESENTATION_CONTEXT ( 'NONE', 'WORKASPACE' ) );
#167 = EDGE_LOOP ( 'NONE', ( #205 ) ) ;
#168 = DIRECTION ( 'NONE',  ( -3.491481338843133355E-15, 1.224646799147353207E-16, -1.000000000000000000 ) ) ;
#169 = DIRECTION ( 'NONE',  ( 0.0000000000000000000, -1.000000000000000000, 0.0000000000000000000 ) ) ;
#170 = APPROVAL ( #70, 'UNSPECIFIED' ) ;
#171 = DIRECTION ( 'NONE',  ( -3.491481338843133355E-15, 1.224646799147353207E-16, -1.000000000000000000 ) ) ;
#172 = APPROVAL_PERSON_ORGANIZATION ( #163, #156, #49 ) ;
#173 = DIRECTION ( 'NONE',  ( -5.312910191413053308E-31, -1.000000000000000000, -1.495451272393796091E-16 ) ) ;
#174 = ADVANCED_BREP_SHAPE_REPRESENTATION ( '960173', ( #28, #186, #108 ), #166 ) ;
#175 = EDGE_CURVE ( 'NONE', #211, #211, #33, .T. ) ;
#176 = PERSON_AND_ORGANIZATION ( #219, #94 ) ;
#177 = CARTESIAN_POINT ( 'NONE',  ( 0.0000000000000000000, 0.0000000000000000000, 0.0000000000000000000 ) ) ;
#178 = TOROIDAL_SURFACE ( 'NONE', #200, 3.900000000000013234, 1.000000000000001332 ) ;
#179 = CARTESIAN_POINT ( 'NONE',  ( 1.518794382396762820E-13, -1.864827736675067626E-14, 43.50000000000000000 ) ) ;
#180 = EDGE_CURVE ( 'NONE', #181, #181, #145, .T. ) ;
#181 = VERTEX_POINT ( 'NONE', #198 ) ;
#182 = CLOSED_SHELL ( 'NONE', ( #15, #138, #31 ) ) ;
#183 = AXIS2_PLACEMENT_3D ( 'NONE', #136, #99, #96 ) ;
#184 = CIRCLE ( 'NONE', #10, 2.900000000000012790 ) ;
#185 = DIRECTION ( 'NONE',  ( -3.491481338843133355E-15, 1.224646799147353207E-16, -1.000000000000000000 ) ) ;
#186 = MANIFOLD_SOLID_BREP ( 'Corps-Déplacer/Copier1[2]', #182 ) ;
#187 = CIRCLE ( 'NONE', #192, 2.900000000000006128 ) ;
#188 = CYLINDRICAL_SURFACE ( 'NONE', #81, 2.900000000000006128 ) ;
#189 = CARTESIAN_POINT ( 'NONE',  ( 1.534013396716037369E-13, -1.883689454316578309E-14, 43.93588989435404102 ) ) ;
#190 = CARTESIAN_POINT ( 'NONE',  ( 3.107418391570388560E-13, -1.089935651241144239E-14, 89.00000000000000000 ) ) ;
#191 = CYLINDRICAL_SURFACE ( 'NONE', #239, 2.900000000000006128 ) ;
#192 = AXIS2_PLACEMENT_3D ( 'NONE', #39, #168, #169 ) ;
#193 = MECHANICAL_CONTEXT ( 'NONE', #77, 'mechanical' ) ;
#194 = ORIENTED_EDGE ( 'NONE', *, *, #147, .F. ) ;
#195 = CALENDAR_DATE ( 2021, 13, 10 ) ;
#196 = DIRECTION ( 'NONE',  ( 3.491481338843133355E-15, -1.224646799147353207E-16, 1.000000000000000000 ) ) ;
#197 = EDGE_CURVE ( 'NONE', #86, #86, #187, .T. ) ;
#198 = CARTESIAN_POINT ( 'NONE',  ( 3.685306314421001138E-15, -2.900000000000006128, 1.055513679372002578 ) ) ;
#199 = PERSON_AND_ORGANIZATION_ROLE ( 'classification_officer' ) ;
#200 = AXIS2_PLACEMENT_3D ( 'NONE', #179, #84, #125 ) ;
#201 = COORDINATED_UNIVERSAL_TIME_OFFSET ( 1, 0, .AHEAD. ) ;
#202 = APPROVAL_PERSON_ORGANIZATION ( #176, #237, #229 ) ;
#203 = DIRECTION ( 'NONE',  ( 0.0000000000000000000, 1.000000000000000000, 0.0000000000000000000 ) ) ;
#204 = CC_DESIGN_PERSON_AND_ORGANIZATION_ASSIGNMENT ( #7, #83, ( #6 ) ) ;
#205 = ORIENTED_EDGE ( 'NONE', *, *, #89, .T. ) ;
#206 = LOCAL_TIME ( 14, 57, 7.000000000000000000, #91 ) ;
#207 = DIRECTION ( 'NONE',  ( 3.491481338843133355E-15, -1.224646799147353207E-16, 1.000000000000000000 ) ) ;
#208 = DIRECTION ( 'NONE',  ( 1.510825004591028205E-30, 1.000000000000000000, 4.327174794786743375E-16 ) ) ;
#209 = DIRECTION ( 'NONE',  ( -3.491481338843133355E-15, 4.327174794786742882E-16, -1.000000000000000000 ) ) ;
#210 = DIRECTION ( 'NONE',  ( 4.275831445896958607E-31, 1.000000000000000000, 1.224646799147353207E-16 ) ) ;
#211 = VERTEX_POINT ( 'NONE', #65 ) ;
#212 =( NAMED_UNIT ( * ) PLANE_ANGLE_UNIT ( ) SI_UNIT ( $, .RADIAN. ) );
#213 = ADVANCED_FACE ( 'NONE', ( #1 ), #75, .F. ) ;
#214 = APPLICATION_PROTOCOL_DEFINITION ( 'international standard', 'config_control_design', 1994, #144 ) ;
#215 = AXIS2_PLACEMENT_3D ( 'NONE', #189, #21, #97 ) ;
#216 = APPROVAL_STATUS ( 'not_yet_approved' ) ;
#217 = CONICAL_SURFACE ( 'NONE', #47, 2.300000000000001155, 0.7853981633974442822 ) ;
#218 = COORDINATED_UNIVERSAL_TIME_OFFSET ( 1, 0, .AHEAD. ) ;
#219 = PERSON ( 'UNSPECIFIED', 'UNSPECIFIED', 'UNSPECIFIED', ('UNSPECIFIED'), ('UNSPECIFIED'), ('UNSPECIFIED') ) ;
#220 = CALENDAR_DATE ( 2021, 13, 10 ) ;
#221 = CIRCLE ( 'NONE', #64, 2.300000000000001155 ) ;
#222 = EDGE_LOOP ( 'NONE', ( #55 ) ) ;
#223 = CARTESIAN_POINT ( 'NONE',  ( 3.107418391570388560E-13, -1.089935651241144239E-14, 89.00000000000000000 ) ) ;
#224 = EDGE_LOOP ( 'NONE', ( #52 ) ) ;
#225 = DIRECTION ( 'NONE',  ( -4.275831445896958607E-31, -1.000000000000000000, -1.224646799147353207E-16 ) ) ;
#226 = ORIENTED_EDGE ( 'NONE', *, *, #175, .F. ) ;
#227 = FACE_OUTER_BOUND ( 'NONE', #240, .T. ) ;
#228 = FACE_OUTER_BOUND ( 'NONE', #167, .T. ) ;
#229 = APPROVAL_ROLE ( '' ) ;
#230 = DIRECTION ( 'NONE',  ( -5.135813185032641787E-31, -1.000000000000000000, -1.445602896647342861E-16 ) ) ;
#231 = VERTEX_POINT ( 'NONE', #126 ) ;
#232 = VERTEX_POINT ( 'NONE', #106 ) ;
#233 = FACE_OUTER_BOUND ( 'NONE', #153, .T. ) ;
#234 = CARTESIAN_POINT ( 'NONE',  ( 1.534013396716037369E-13, 2.999999999999980460, 43.93588989435404102 ) ) ;
#235 = SECURITY_CLASSIFICATION ( '', '', #110 ) ;
#236 = CALENDAR_DATE ( 2021, 13, 10 ) ;
#237 = APPROVAL ( #160, 'UNSPECIFIED' ) ;
#238 = PERSON_AND_ORGANIZATION_ROLE ( 'creator' ) ;
#239 = AXIS2_PLACEMENT_3D ( 'NONE', #61, #25, #208 ) ;
#240 = EDGE_LOOP ( 'NONE', ( #2 ) ) ;
#241 = CC_DESIGN_PERSON_AND_ORGANIZATION_ASSIGNMENT ( #130, #146, ( #161 ) ) ;
#242 = PLANE ( 'NONE',  #3 ) ;
#243 = DIRECTION ( 'NONE',  ( 0.0000000000000000000, 1.000000000000000000, 0.0000000000000000000 ) ) ;
ENDSEC;
END-ISO-10303-21;
