ISO-10303-21;
HEADER;
FILE_DESCRIPTION (( 'STEP AP203' ),
    '1' );
FILE_NAME ('960172.step',
    '2021-10-13T12:57:07',
    ( '' ),
    ( '' ),
    'SwSTEP 2.0',
    'SolidWorks 2019',
    '' );
FILE_SCHEMA (( 'CONFIG_CONTROL_DESIGN' ));
ENDSEC;

DATA;
#1 = CARTESIAN_POINT ( 'NONE',  ( 3.082978022198486311E-13, -1.081363123647112810E-14, 88.29999999999998295 ) ) ;
#2 = ADVANCED_FACE ( 'NONE', ( #201 ), #13, .T. ) ;
#3 = AXIS2_PLACEMENT_3D ( 'NONE', #248, #53, #36 ) ;
#4 = CARTESIAN_POINT ( 'NONE',  ( 3.107418391570388560E-13, 1.724723750061120922E-32, 89.00000000000000000 ) ) ;
#5 = DIRECTION ( 'NONE',  ( -3.491481338843133355E-15, 1.224646799147353207E-16, -1.000000000000000000 ) ) ;
#6 = CC_DESIGN_APPROVAL ( #94, ( #33 ) ) ;
#7 = DIRECTION ( 'NONE',  ( 1.510825004591027679E-30, 1.000000000000000000, 4.327174794786742882E-16 ) ) ;
#8 = CARTESIAN_POINT ( 'NONE',  ( 3.107418391570388560E-13, 2.299999999999990496, 89.00000000000000000 ) ) ;
#9 = FACE_OUTER_BOUND ( 'NONE', #155, .T. ) ;
#10 = DESIGN_CONTEXT ( 'detailed design', #214, 'design' ) ;
#11 = EDGE_LOOP ( 'NONE', ( #170 ) ) ;
#12 = CARTESIAN_POINT ( 'NONE',  ( 1.466422162314116009E-13, -1.821459649775647449E-14, 42.00000000000000000 ) ) ;
#13 = CONICAL_SURFACE ( 'NONE', #120, 2.999999999999992450, 1.221730476396026610 ) ;
#14 = CALENDAR_DATE ( 2021, 13, 10 ) ;
#15 = APPROVAL_PERSON_ORGANIZATION ( #56, #220, #198 ) ;
#16 = DATE_TIME_ROLE ( 'creation_date' ) ;
#17 = ORIENTED_EDGE ( 'NONE', *, *, #157, .T. ) ;
#18 = PERSON_AND_ORGANIZATION_ROLE ( 'design_owner' ) ;
#19 = AXIS2_PLACEMENT_3D ( 'NONE', #75, #229, #92 ) ;
#20 = CC_DESIGN_PERSON_AND_ORGANIZATION_ASSIGNMENT ( #99, #18, ( #67 ) ) ;
#21 = PERSON_AND_ORGANIZATION_ROLE ( 'creator' ) ;
#22 = ORIENTED_EDGE ( 'NONE', *, *, #51, .T. ) ;
#23 = ORIENTED_EDGE ( 'NONE', *, *, #118, .T. ) ;
#24 = FACE_OUTER_BOUND ( 'NONE', #232, .T. ) ;
#25 = EDGE_LOOP ( 'NONE', ( #17 ) ) ;
#26 =( GEOMETRIC_REPRESENTATION_CONTEXT ( 3 ) GLOBAL_UNCERTAINTY_ASSIGNED_CONTEXT ( ( #115 ) ) GLOBAL_UNIT_ASSIGNED_CONTEXT ( ( #150, #253, #175 ) ) REPRESENTATION_CONTEXT ( 'NONE', 'WORKASPACE' ) );
#27 = FACE_OUTER_BOUND ( 'NONE', #139, .T. ) ;
#28 = EDGE_CURVE ( 'NONE', #49, #49, #247, .T. ) ;
#29 = DATE_AND_TIME ( #183, #151 ) ;
#30 = DIRECTION ( 'NONE',  ( -5.502656983963518247E-31, -1.000000000000000000, -1.548860246407859885E-16 ) ) ;
#31 = DIRECTION ( 'NONE',  ( 3.491481338843133355E-15, -4.327174794786742882E-16, 1.000000000000000000 ) ) ;
#32 = CIRCLE ( 'NONE', #74, 2.300000000000001155 ) ;
#33 = SECURITY_CLASSIFICATION ( '', '', #104 ) ;
#34 = VERTEX_POINT ( 'NONE', #192 ) ;
#35 = CARTESIAN_POINT ( 'NONE',  ( 3.082978022198486311E-13, 2.999999999999991118, 88.29999999999998295 ) ) ;
#36 = DIRECTION ( 'NONE',  ( 0.0000000000000000000, 1.000000000000000000, 0.0000000000000000000 ) ) ;
#37 = DATE_AND_TIME ( #59, #189 ) ;
#38 = CC_DESIGN_PERSON_AND_ORGANIZATION_ASSIGNMENT ( #236, #181, ( #33 ) ) ;
#39 = DATE_AND_TIME ( #259, #172 ) ;
#40 = MECHANICAL_CONTEXT ( 'NONE', #205, 'mechanical' ) ;
#41 = AXIS2_PLACEMENT_3D ( 'NONE', #173, #80, #156 ) ;
#42 = ORIENTED_EDGE ( 'NONE', *, *, #174, .F. ) ;
#43 = EDGE_LOOP ( 'NONE', ( #217 ) ) ;
#44 = DIRECTION ( 'NONE',  ( 3.491481338843133355E-15, -1.224646799147353207E-16, 1.000000000000000000 ) ) ;
#45 = SHAPE_DEFINITION_REPRESENTATION ( #122, #62 ) ;
#46 = ORIENTED_EDGE ( 'NONE', *, *, #28, .T. ) ;
#47 = FACE_OUTER_BOUND ( 'NONE', #72, .T. ) ;
#48 = CIRCLE ( 'NONE', #242, 2.800000000000006484 ) ;
#49 = VERTEX_POINT ( 'NONE', #129 ) ;
#50 = CARTESIAN_POINT ( 'NONE',  ( 3.558226786337518422E-15, -2.800000000000006484, 1.019116655945381922 ) ) ;
#51 = EDGE_CURVE ( 'NONE', #149, #149, #48, .T. ) ;
#52 = CONICAL_SURFACE ( 'NONE', #145, 2.300000000000001155, 0.7853981633974442822 ) ;
#53 = DIRECTION ( 'NONE',  ( -3.491481338843133355E-15, 4.327174794786742882E-16, -1.000000000000000000 ) ) ;
#54 = COORDINATED_UNIVERSAL_TIME_OFFSET ( 1, 0, .AHEAD. ) ;
#55 = ORIENTED_EDGE ( 'NONE', *, *, #105, .T. ) ;
#56 = PERSON_AND_ORGANIZATION ( #154, #130 ) ;
#57 = APPROVAL_DATE_TIME ( #37, #85 ) ;
#58 = MANIFOLD_SOLID_BREP ( 'Corps-Déplacer/Copier1[1]', #90 ) ;
#59 = CALENDAR_DATE ( 2021, 13, 10 ) ;
#60 = CIRCLE ( 'NONE', #178, 2.933974596215572106 ) ;
#61 = APPROVAL_PERSON_ORGANIZATION ( #136, #94, #103 ) ;
#62 = ADVANCED_BREP_SHAPE_REPRESENTATION ( '960172', ( #58, #148, #41 ), #26 ) ;
#63 = APPROVAL_DATE_TIME ( #29, #94 ) ;
#64 = DIRECTION ( 'NONE',  ( -4.275831445896958607E-31, -1.000000000000000000, -1.224646799147353207E-16 ) ) ;
#65 = ADVANCED_FACE ( 'NONE', ( #66 ), #108, .F. ) ;
#66 = FACE_OUTER_BOUND ( 'NONE', #123, .T. ) ;
#67 = PRODUCT ( '960172', '960172', '', ( #40 ) ) ;
#68 = CARTESIAN_POINT ( 'NONE',  ( 1.270899207338900794E-13, -1.575091625302374472E-14, 36.39999999999999858 ) ) ;
#69 = AXIS2_PLACEMENT_3D ( 'NONE', #121, #200, #166 ) ;
#70 = ADVANCED_FACE ( 'NONE', ( #128, #204 ), #52, .T. ) ;
#71 = DIRECTION ( 'NONE',  ( -5.135813185032641787E-31, -1.000000000000000000, -1.445602896647342861E-16 ) ) ;
#72 = EDGE_LOOP ( 'NONE', ( #55 ) ) ;
#73 = DIRECTION ( 'NONE',  ( 0.0000000000000000000, 1.000000000000000000, 0.0000000000000000000 ) ) ;
#74 = AXIS2_PLACEMENT_3D ( 'NONE', #167, #245, #73 ) ;
#75 = CARTESIAN_POINT ( 'NONE',  ( 1.518109519873314155E-13, -1.881472249912761067E-14, 43.48038475772934675 ) ) ;
#76 = ADVANCED_FACE ( 'NONE', ( #27 ), #263, .F. ) ;
#77 = CIRCLE ( 'NONE', #3, 2.800000000000012701 ) ;
#78 = CC_DESIGN_APPROVAL ( #85, ( #79 ) ) ;
#79 = PRODUCT_DEFINITION ( 'UNKNOWN', '', #110, #10 ) ;
#80 = DIRECTION ( 'NONE',  ( 0.0000000000000000000, 0.0000000000000000000, 1.000000000000000000 ) ) ;
#81 = APPROVAL_STATUS ( 'not_yet_approved' ) ;
#82 = DATE_AND_TIME ( #14, #219 ) ;
#83 = DATE_TIME_ROLE ( 'classification_date' ) ;
#84 = CARTESIAN_POINT ( 'NONE',  ( 3.107418391570388560E-13, -1.089935651241144239E-14, 89.00000000000000000 ) ) ;
#85 = APPROVAL ( #81, 'UNSPECIFIED' ) ;
#86 = DIRECTION ( 'NONE',  ( 3.491481338843133355E-15, -1.224646799147353207E-16, 1.000000000000000000 ) ) ;
#87 = DIRECTION ( 'NONE',  ( -3.491481338843133355E-15, 1.224646799147353207E-16, -1.000000000000000000 ) ) ;
#88 = ADVANCED_FACE ( 'NONE', ( #24 ), #240, .T. ) ;
#89 = EDGE_LOOP ( 'NONE', ( #162 ) ) ;
#90 = CLOSED_SHELL ( 'NONE', ( #231, #70, #65, #179, #260, #212, #76 ) ) ;
#91 = DIRECTION ( 'NONE',  ( 0.0000000000000000000, 1.000000000000000000, 0.0000000000000000000 ) ) ;
#92 = DIRECTION ( 'NONE',  ( 0.0000000000000000000, -1.000000000000000000, 0.0000000000000000000 ) ) ;
#93 = FACE_OUTER_BOUND ( 'NONE', #102, .T. ) ;
#94 = APPROVAL ( #119, 'UNSPECIFIED' ) ;
#95 = CLOSED_SHELL ( 'NONE', ( #2, #163, #88 ) ) ;
#96 = FACE_OUTER_BOUND ( 'NONE', #43, .T. ) ;
#97 = TOROIDAL_SURFACE ( 'NONE', #239, 3.800000000000012701, 1.000000000000001998 ) ;
#98 = COORDINATED_UNIVERSAL_TIME_OFFSET ( 1, 0, .AHEAD. ) ;
#99 = PERSON_AND_ORGANIZATION ( #154, #130 ) ;
#100 = APPROVAL_DATE_TIME ( #159, #220 ) ;
#101 = CC_DESIGN_PERSON_AND_ORGANIZATION_ASSIGNMENT ( #238, #21, ( #110 ) ) ;
#102 = EDGE_LOOP ( 'NONE', ( #46 ) ) ;
#103 = APPROVAL_ROLE ( '' ) ;
#104 = SECURITY_CLASSIFICATION_LEVEL ( 'unclassified' ) ;
#105 = EDGE_CURVE ( 'NONE', #211, #211, #60, .T. ) ;
#106 = CARTESIAN_POINT ( 'NONE',  ( 3.812385842504467288E-15, -1.337204947137065176E-16, 1.091910702798618571 ) ) ;
#107 = DIRECTION ( 'NONE',  ( -3.491481338843133355E-15, 4.327174794786742882E-16, -1.000000000000000000 ) ) ;
#108 = PLANE ( 'NONE',  #234 ) ;
#109 = DIRECTION ( 'NONE',  ( -3.491481338843133355E-15, 1.224646799147353207E-16, -1.000000000000000000 ) ) ;
#110 = PRODUCT_DEFINITION_FORMATION_WITH_SPECIFIED_SOURCE ( 'ANY', '', #67, .NOT_KNOWN. ) ;
#111 = CYLINDRICAL_SURFACE ( 'NONE', #134, 2.800000000000006484 ) ;
#112 = FACE_BOUND ( 'NONE', #161, .T. ) ;
#113 = CARTESIAN_POINT ( 'NONE',  ( 1.466422162314116009E-13, 2.799999999999994493, 42.00000000000000000 ) ) ;
#114 = CARTESIAN_POINT ( 'NONE',  ( 0.0000000000000000000, 0.0000000000000000000, 0.0000000000000000000 ) ) ;
#115 = UNCERTAINTY_MEASURE_WITH_UNIT (LENGTH_MEASURE( 1.000000000000000082E-05 ), #150, 'distance_accuracy_value', 'NONE');
#116 = DIRECTION ( 'NONE',  ( -3.491481338843133355E-15, 4.327174794786742882E-16, -1.000000000000000000 ) ) ;
#117 = PERSON_AND_ORGANIZATION_ROLE ( 'creator' ) ;
#118 = EDGE_CURVE ( 'NONE', #131, #131, #218, .T. ) ;
#119 = APPROVAL_STATUS ( 'not_yet_approved' ) ;
#120 = AXIS2_PLACEMENT_3D ( 'NONE', #106, #86, #71 ) ;
#121 = CARTESIAN_POINT ( 'NONE',  ( 1.270899207338900794E-13, 2.249639673992777106E-32, 36.39999999999999858 ) ) ;
#122 = PRODUCT_DEFINITION_SHAPE ( 'NONE', 'NONE',  #79 ) ;
#123 = EDGE_LOOP ( 'NONE', ( #221 ) ) ;
#124 = AXIS2_PLACEMENT_3D ( 'NONE', #143, #44, #64 ) ;
#125 = DIRECTION ( 'NONE',  ( 0.0000000000000000000, -1.000000000000000000, 0.0000000000000000000 ) ) ;
#126 = ORIENTED_EDGE ( 'NONE', *, *, #157, .F. ) ;
#127 = CARTESIAN_POINT ( 'NONE',  ( 3.558226786337520000E-15, -1.248057950661267027E-16, 1.019116655945382144 ) ) ;
#128 = FACE_OUTER_BOUND ( 'NONE', #244, .T. ) ;
#129 = CARTESIAN_POINT ( 'NONE',  ( 1.487872404510538860E-13, -3.000000000000017764, 42.61435935394488439 ) ) ;
#130 = ORGANIZATION ( 'UNSPECIFIED', 'UNSPECIFIED', '' ) ;
#131 = VERTEX_POINT ( 'NONE', #35 ) ;
#132 = CARTESIAN_POINT ( 'NONE',  ( 0.0000000000000000000, 0.0000000000000000000, 0.0000000000000000000 ) ) ;
#133 = AXIS2_PLACEMENT_3D ( 'NONE', #127, #203, #30 ) ;
#134 = AXIS2_PLACEMENT_3D ( 'NONE', #132, #152, #230 ) ;
#135 = FACE_OUTER_BOUND ( 'NONE', #89, .T. ) ;
#136 = PERSON_AND_ORGANIZATION ( #154, #130 ) ;
#137 = EDGE_CURVE ( 'NONE', #34, #34, #182, .T. ) ;
#138 = PERSON_AND_ORGANIZATION ( #154, #130 ) ;
#139 = EDGE_LOOP ( 'NONE', ( #22 ) ) ;
#140 = CC_DESIGN_PERSON_AND_ORGANIZATION_ASSIGNMENT ( #177, #256, ( #110 ) ) ;
#141 = CC_DESIGN_APPROVAL ( #220, ( #110 ) ) ;
#142 = EDGE_LOOP ( 'NONE', ( #126 ) ) ;
#143 = CARTESIAN_POINT ( 'NONE',  ( 1.270899207338900794E-13, 2.249639673992777106E-32, 36.39999999999999858 ) ) ;
#144 = CC_DESIGN_PERSON_AND_ORGANIZATION_ASSIGNMENT ( #138, #117, ( #79 ) ) ;
#145 = AXIS2_PLACEMENT_3D ( 'NONE', #84, #109, #91 ) ;
#146 = DIRECTION ( 'NONE',  ( -3.491481338843133355E-15, 1.224646799147353207E-16, -1.000000000000000000 ) ) ;
#147 = DIRECTION ( 'NONE',  ( -3.491481338843133355E-15, 1.224646799147353207E-16, -1.000000000000000000 ) ) ;
#148 = MANIFOLD_SOLID_BREP ( 'Corps-Déplacer/Copier1[2]', #95 ) ;
#149 = VERTEX_POINT ( 'NONE', #227 ) ;
#150 =( LENGTH_UNIT ( ) NAMED_UNIT ( * ) SI_UNIT ( .MILLI., .METRE. ) );
#151 = LOCAL_TIME ( 14, 57, 7.000000000000000000, #213 ) ;
#152 = DIRECTION ( 'NONE',  ( -3.491481338843133355E-15, 4.327174794786742882E-16, -1.000000000000000000 ) ) ;
#153 = CONICAL_SURFACE ( 'NONE', #19, 3.500000000000015987, 0.5235987755982993708 ) ;
#154 = PERSON ( 'UNSPECIFIED', 'UNSPECIFIED', 'UNSPECIFIED', ('UNSPECIFIED'), ('UNSPECIFIED'), ('UNSPECIFIED') ) ;
#155 = EDGE_LOOP ( 'NONE', ( #180 ) ) ;
#156 = DIRECTION ( 'NONE',  ( 1.000000000000000000, 0.0000000000000000000, 0.0000000000000000000 ) ) ;
#157 = EDGE_CURVE ( 'NONE', #228, #228, #226, .T. ) ;
#158 = APPROVAL_ROLE ( '' ) ;
#159 = DATE_AND_TIME ( #160, #251 ) ;
#160 = CALENDAR_DATE ( 2021, 13, 10 ) ;
#161 = EDGE_LOOP ( 'NONE', ( #255 ) ) ;
#162 = ORIENTED_EDGE ( 'NONE', *, *, #174, .T. ) ;
#163 = ADVANCED_FACE ( 'NONE', ( #186, #250 ), #111, .T. ) ;
#164 = DIRECTION ( 'NONE',  ( 0.0000000000000000000, 1.000000000000000000, 0.0000000000000000000 ) ) ;
#165 = APPROVAL_PERSON_ORGANIZATION ( #233, #85, #158 ) ;
#166 = DIRECTION ( 'NONE',  ( -4.275831445896958607E-31, -1.000000000000000000, -1.224646799147353207E-16 ) ) ;
#167 = CARTESIAN_POINT ( 'NONE',  ( 3.107418391570388560E-13, -1.089935651241144239E-14, 89.00000000000000000 ) ) ;
#168 = DIRECTION ( 'NONE',  ( 4.275831445896958607E-31, 1.000000000000000000, 1.224646799147353207E-16 ) ) ;
#169 = DIRECTION ( 'NONE',  ( -3.491481338843133355E-15, 4.327174794786742882E-16, -1.000000000000000000 ) ) ;
#170 = ORIENTED_EDGE ( 'NONE', *, *, #235, .T. ) ;
#171 = CYLINDRICAL_SURFACE ( 'NONE', #262, 2.999999999999999112 ) ;
#172 = LOCAL_TIME ( 14, 57, 7.000000000000000000, #216 ) ;
#173 = CARTESIAN_POINT ( 'NONE',  ( 0.0000000000000000000, 0.0000000000000000000, 0.0000000000000000000 ) ) ;
#174 = EDGE_CURVE ( 'NONE', #209, #209, #77, .T. ) ;
#175 =( NAMED_UNIT ( * ) SI_UNIT ( $, .STERADIAN. ) SOLID_ANGLE_UNIT ( ) );
#176 = EDGE_LOOP ( 'NONE', ( #42 ) ) ;
#177 = PERSON_AND_ORGANIZATION ( #154, #130 ) ;
#178 = AXIS2_PLACEMENT_3D ( 'NONE', #223, #107, #185 ) ;
#179 = ADVANCED_FACE ( 'NONE', ( #135, #9 ), #208, .T. ) ;
#180 = ORIENTED_EDGE ( 'NONE', *, *, #51, .F. ) ;
#181 = PERSON_AND_ORGANIZATION_ROLE ( 'classification_officer' ) ;
#182 = CIRCLE ( 'NONE', #188, 2.800000000000006484 ) ;
#183 = CALENDAR_DATE ( 2021, 13, 10 ) ;
#184 = DIRECTION ( 'NONE',  ( -3.491481338843133355E-15, 1.224646799147353207E-16, -1.000000000000000000 ) ) ;
#185 = DIRECTION ( 'NONE',  ( 0.0000000000000000000, 1.000000000000000000, 0.0000000000000000000 ) ) ;
#186 = FACE_OUTER_BOUND ( 'NONE', #237, .T. ) ;
#187 = CC_DESIGN_DATE_AND_TIME_ASSIGNMENT ( #82, #16, ( #79 ) ) ;
#188 = AXIS2_PLACEMENT_3D ( 'NONE', #68, #146, #224 ) ;
#189 = LOCAL_TIME ( 14, 57, 7.000000000000000000, #197 ) ;
#190 = CARTESIAN_POINT ( 'NONE',  ( 1.270899207338900794E-13, -1.575091625302374472E-14, 36.39999999999999858 ) ) ;
#191 = CARTESIAN_POINT ( 'NONE',  ( 0.0000000000000000000, 0.0000000000000000000, 0.0000000000000000000 ) ) ;
#192 = CARTESIAN_POINT ( 'NONE',  ( 1.270899207338900794E-13, -2.800000000000022027, 36.39999999999999858 ) ) ;
#193 = VERTEX_POINT ( 'NONE', #8 ) ;
#194 = DIRECTION ( 'NONE',  ( 1.510825004591027855E-30, 1.000000000000000000, 4.327174794786742389E-16 ) ) ;
#195 = ORIENTED_EDGE ( 'NONE', *, *, #137, .F. ) ;
#196 = FACE_OUTER_BOUND ( 'NONE', #241, .T. ) ;
#197 = COORDINATED_UNIVERSAL_TIME_OFFSET ( 1, 0, .AHEAD. ) ;
#198 = APPROVAL_ROLE ( '' ) ;
#199 = APPLICATION_PROTOCOL_DEFINITION ( 'international standard', 'config_control_design', 1994, #214 ) ;
#200 = DIRECTION ( 'NONE',  ( 3.491481338843133355E-15, -1.224646799147353207E-16, 1.000000000000000000 ) ) ;
#201 = FACE_OUTER_BOUND ( 'NONE', #25, .T. ) ;
#202 = CARTESIAN_POINT ( 'NONE',  ( 1.487872404510538860E-13, -1.843997816923749401E-14, 42.61435935394488439 ) ) ;
#203 = DIRECTION ( 'NONE',  ( -3.491481338843133355E-15, 1.224646799147353207E-16, -1.000000000000000000 ) ) ;
#204 = FACE_BOUND ( 'NONE', #11, .T. ) ;
#205 = APPLICATION_CONTEXT ( 'configuration controlled 3d designs of mechanical parts and assemblies' ) ;
#206 = AXIS2_PLACEMENT_3D ( 'NONE', #191, #169, #194 ) ;
#207 = CARTESIAN_POINT ( 'NONE',  ( 1.483879569008331865E-13, 2.933974596215553898, 42.50000000000000000 ) ) ;
#208 = CYLINDRICAL_SURFACE ( 'NONE', #206, 2.800000000000006484 ) ;
#209 = VERTEX_POINT ( 'NONE', #113 ) ;
#210 = AXIS2_PLACEMENT_3D ( 'NONE', #1, #87, #164 ) ;
#211 = VERTEX_POINT ( 'NONE', #207 ) ;
#212 = ADVANCED_FACE ( 'NONE', ( #249, #47 ), #97, .F. ) ;
#213 = COORDINATED_UNIVERSAL_TIME_OFFSET ( 1, 0, .AHEAD. ) ;
#214 = APPLICATION_CONTEXT ( 'configuration controlled 3d designs of mechanical parts and assemblies' ) ;
#215 = APPROVAL_STATUS ( 'not_yet_approved' ) ;
#216 = COORDINATED_UNIVERSAL_TIME_OFFSET ( 1, 0, .AHEAD. ) ;
#217 = ORIENTED_EDGE ( 'NONE', *, *, #28, .F. ) ;
#218 = CIRCLE ( 'NONE', #210, 3.000000000000001776 ) ;
#219 = LOCAL_TIME ( 14, 57, 7.000000000000000000, #98 ) ;
#220 = APPROVAL ( #215, 'UNSPECIFIED' ) ;
#221 = ORIENTED_EDGE ( 'NONE', *, *, #235, .F. ) ;
#222 = CC_DESIGN_SECURITY_CLASSIFICATION ( #33, ( #110 ) ) ;
#223 = CARTESIAN_POINT ( 'NONE',  ( 1.483879569008331865E-13, -1.839049287784365883E-14, 42.50000000000000000 ) ) ;
#224 = DIRECTION ( 'NONE',  ( 0.0000000000000000000, -1.000000000000000000, 0.0000000000000000000 ) ) ;
#225 = ORIENTED_EDGE ( 'NONE', *, *, #137, .T. ) ;
#226 = CIRCLE ( 'NONE', #133, 2.800000000000006484 ) ;
#227 = CARTESIAN_POINT ( 'NONE',  ( 1.270899207338900794E-13, -2.800000000000022027, 36.39999999999999858 ) ) ;
#228 = VERTEX_POINT ( 'NONE', #50 ) ;
#229 = DIRECTION ( 'NONE',  ( 3.491481338843133355E-15, -4.327174794786742882E-16, 1.000000000000000000 ) ) ;
#230 = DIRECTION ( 'NONE',  ( 1.510825004591027855E-30, 1.000000000000000000, 4.327174794786742389E-16 ) ) ;
#231 = ADVANCED_FACE ( 'NONE', ( #93, #196 ), #171, .T. ) ;
#232 = EDGE_LOOP ( 'NONE', ( #195 ) ) ;
#233 = PERSON_AND_ORGANIZATION ( #154, #130 ) ;
#234 = AXIS2_PLACEMENT_3D ( 'NONE', #4, #184, #243 ) ;
#235 = EDGE_CURVE ( 'NONE', #193, #193, #32, .T. ) ;
#236 = PERSON_AND_ORGANIZATION ( #154, #130 ) ;
#237 = EDGE_LOOP ( 'NONE', ( #225 ) ) ;
#238 = PERSON_AND_ORGANIZATION ( #154, #130 ) ;
#239 = AXIS2_PLACEMENT_3D ( 'NONE', #12, #116, #7 ) ;
#240 = PLANE ( 'NONE',  #124 ) ;
#241 = EDGE_LOOP ( 'NONE', ( #23 ) ) ;
#242 = AXIS2_PLACEMENT_3D ( 'NONE', #190, #147, #125 ) ;
#243 = DIRECTION ( 'NONE',  ( 4.275831445896958607E-31, 1.000000000000000000, 1.224646799147353207E-16 ) ) ;
#244 = EDGE_LOOP ( 'NONE', ( #252 ) ) ;
#245 = DIRECTION ( 'NONE',  ( -3.491481338843133355E-15, 1.224646799147353207E-16, -1.000000000000000000 ) ) ;
#246 = PRODUCT_RELATED_PRODUCT_CATEGORY ( 'detail', '', ( #67 ) ) ;
#247 = CIRCLE ( 'NONE', #257, 2.999999999999999112 ) ;
#248 = CARTESIAN_POINT ( 'NONE',  ( 1.466422162314116009E-13, -1.817413413810432010E-14, 42.00000000000000000 ) ) ;
#249 = FACE_OUTER_BOUND ( 'NONE', #176, .T. ) ;
#250 = FACE_OUTER_BOUND ( 'NONE', #142, .T. ) ;
#251 = LOCAL_TIME ( 14, 57, 7.000000000000000000, #54 ) ;
#252 = ORIENTED_EDGE ( 'NONE', *, *, #118, .F. ) ;
#253 =( NAMED_UNIT ( * ) PLANE_ANGLE_UNIT ( ) SI_UNIT ( $, .RADIAN. ) );
#254 = CC_DESIGN_DATE_AND_TIME_ASSIGNMENT ( #39, #83, ( #33 ) ) ;
#255 = ORIENTED_EDGE ( 'NONE', *, *, #105, .F. ) ;
#256 = PERSON_AND_ORGANIZATION_ROLE ( 'design_supplier' ) ;
#257 = AXIS2_PLACEMENT_3D ( 'NONE', #202, #31, #261 ) ;
#258 = APPLICATION_PROTOCOL_DEFINITION ( 'international standard', 'config_control_design', 1994, #205 ) ;
#259 = CALENDAR_DATE ( 2021, 13, 10 ) ;
#260 = ADVANCED_FACE ( 'NONE', ( #112, #96 ), #153, .T. ) ;
#261 = DIRECTION ( 'NONE',  ( 0.0000000000000000000, -1.000000000000000000, 0.0000000000000000000 ) ) ;
#262 = AXIS2_PLACEMENT_3D ( 'NONE', #114, #5, #168 ) ;
#263 = PLANE ( 'NONE',  #69 ) ;
ENDSEC;
END-ISO-10303-21;
