ISO-10303-21;
HEADER;
FILE_DESCRIPTION (( 'STEP AP203' ),
    '1' );
FILE_NAME ('960171.step',
    '2021-10-13T12:57:06',
    ( '' ),
    ( '' ),
    'SwSTEP 2.0',
    'SolidWorks 2019',
    '' );
FILE_SCHEMA (( 'CONFIG_CONTROL_DESIGN' ));
ENDSEC;

DATA;
#1 = ORIENTED_EDGE ( 'NONE', *, *, #13, .T. ) ;
#2 = CARTESIAN_POINT ( 'NONE',  ( 3.082978022198486311E-13, -1.081363123647112810E-14, 88.29999999999998295 ) ) ;
#3 = AXIS2_PLACEMENT_3D ( 'NONE', #232, #237, #155 ) ;
#4 = APPROVAL_PERSON_ORGANIZATION ( #57, #173, #215 ) ;
#5 = FACE_OUTER_BOUND ( 'NONE', #94, .T. ) ;
#6 = DIRECTION ( 'NONE',  ( -3.491481338843133355E-15, 4.327174794786742882E-16, -1.000000000000000000 ) ) ;
#7 = FACE_OUTER_BOUND ( 'NONE', #182, .T. ) ;
#8 = EDGE_CURVE ( 'NONE', #171, #171, #85, .T. ) ;
#9 = VERTEX_POINT ( 'NONE', #135 ) ;
#10 = DIRECTION ( 'NONE',  ( -4.275831445896958607E-31, -1.000000000000000000, -1.224646799147353207E-16 ) ) ;
#11 = CARTESIAN_POINT ( 'NONE',  ( 1.441981792942214013E-13, 2.749999999999995115, 41.29999999999999716 ) ) ;
#12 = EDGE_LOOP ( 'NONE', ( #214 ) ) ;
#13 = EDGE_CURVE ( 'NONE', #137, #137, #212, .T. ) ;
#14 = APPROVAL_DATE_TIME ( #56, #191 ) ;
#15 = PERSON_AND_ORGANIZATION_ROLE ( 'design_owner' ) ;
#16 = ORGANIZATION ( 'UNSPECIFIED', 'UNSPECIFIED', '' ) ;
#17 = ORIENTED_EDGE ( 'NONE', *, *, #8, .F. ) ;
#18 = PLANE ( 'NONE',  #42 ) ;
#19 = ADVANCED_FACE ( 'NONE', ( #224 ), #18, .F. ) ;
#20 = DIRECTION ( 'NONE',  ( -3.491481338843133355E-15, 4.327174794786742882E-16, -1.000000000000000000 ) ) ;
#21 = CYLINDRICAL_SURFACE ( 'NONE', #205, 2.999999999999999112 ) ;
#22 = CARTESIAN_POINT ( 'NONE',  ( 0.0000000000000000000, 0.0000000000000000000, 0.0000000000000000000 ) ) ;
#23 = CARTESIAN_POINT ( 'NONE',  ( 3.494687022295777458E-15, -2.750000000000006217, 1.000918144232071594 ) ) ;
#24 = VERTEX_POINT ( 'NONE', #11 ) ;
#25 = MECHANICAL_CONTEXT ( 'NONE', #111, 'mechanical' ) ;
#26 = DIRECTION ( 'NONE',  ( 0.0000000000000000000, 0.0000000000000000000, 1.000000000000000000 ) ) ;
#27 = CC_DESIGN_APPROVAL ( #67, ( #34 ) ) ;
#28 = VERTEX_POINT ( 'NONE', #195 ) ;
#29 = EDGE_LOOP ( 'NONE', ( #206 ) ) ;
#30 = APPROVAL_DATE_TIME ( #52, #173 ) ;
#31 = CALENDAR_DATE ( 2021, 13, 10 ) ;
#32 = COORDINATED_UNIVERSAL_TIME_OFFSET ( 1, 0, .AHEAD. ) ;
#33 = AXIS2_PLACEMENT_3D ( 'NONE', #130, #104, #255 ) ;
#34 = SECURITY_CLASSIFICATION ( '', '', #123 ) ;
#35 = ORIENTED_EDGE ( 'NONE', *, *, #92, .T. ) ;
#36 = CARTESIAN_POINT ( 'NONE',  ( 1.459439199636429616E-13, -1.808759064220858335E-14, 41.79999999999999716 ) ) ;
#37 = CARTESIAN_POINT ( 'NONE',  ( 3.107418391570388560E-13, 1.724723750061120922E-32, 89.00000000000000000 ) ) ;
#38 = CARTESIAN_POINT ( 'NONE',  ( 3.494687022295779036E-15, -1.225771201542315887E-16, 1.000918144232072038 ) ) ;
#39 = CARTESIAN_POINT ( 'NONE',  ( 3.107418391570388560E-13, -1.089935651241144239E-14, 89.00000000000000000 ) ) ;
#40 = DIRECTION ( 'NONE',  ( 0.0000000000000000000, 1.000000000000000000, 0.0000000000000000000 ) ) ;
#41 = DIRECTION ( 'NONE',  ( 0.0000000000000000000, -1.000000000000000000, 0.0000000000000000000 ) ) ;
#42 = AXIS2_PLACEMENT_3D ( 'NONE', #37, #166, #184 ) ;
#43 = CARTESIAN_POINT ( 'NONE',  ( 1.249950319305841615E-13, 2.249639673992777106E-32, 35.79999999999999716 ) ) ;
#44 = CARTESIAN_POINT ( 'NONE',  ( 1.496692862037689537E-13, -1.854929469648154592E-14, 42.86698729810778730 ) ) ;
#45 = ORIENTED_EDGE ( 'NONE', *, *, #13, .F. ) ;
#46 = FACE_OUTER_BOUND ( 'NONE', #142, .T. ) ;
#47 = ORIENTED_EDGE ( 'NONE', *, *, #165, .T. ) ;
#48 = CC_DESIGN_APPROVAL ( #191, ( #86 ) ) ;
#49 = EDGE_CURVE ( 'NONE', #28, #28, #59, .T. ) ;
#50 = CARTESIAN_POINT ( 'NONE',  ( 1.441981792942214013E-13, -1.787123190246924779E-14, 41.29999999999999716 ) ) ;
#51 = MANIFOLD_SOLID_BREP ( 'Corps-Déplacer/Copier1[2]', #223 ) ;
#52 = DATE_AND_TIME ( #246, #74 ) ;
#53 = PERSON_AND_ORGANIZATION_ROLE ( 'classification_officer' ) ;
#54 = AXIS2_PLACEMENT_3D ( 'NONE', #68, #88, #40 ) ;
#55 = COORDINATED_UNIVERSAL_TIME_OFFSET ( 1, 0, .AHEAD. ) ;
#56 = DATE_AND_TIME ( #201, #80 ) ;
#57 = PERSON_AND_ORGANIZATION ( #76, #16 ) ;
#58 = EDGE_LOOP ( 'NONE', ( #143 ) ) ;
#59 = CIRCLE ( 'NONE', #260, 2.300000000000001155 ) ;
#60 = ADVANCED_FACE ( 'NONE', ( #125, #186 ), #169, .F. ) ;
#61 = APPROVAL_PERSON_ORGANIZATION ( #202, #191, #239 ) ;
#62 = ORIENTED_EDGE ( 'NONE', *, *, #92, .F. ) ;
#63 = DIRECTION ( 'NONE',  ( 0.0000000000000000000, 1.000000000000000000, 0.0000000000000000000 ) ) ;
#64 = PRODUCT_DEFINITION_SHAPE ( 'NONE', 'NONE',  #69 ) ;
#65 = FACE_OUTER_BOUND ( 'NONE', #249, .T. ) ;
#66 = EDGE_LOOP ( 'NONE', ( #154 ) ) ;
#67 = APPROVAL ( #200, 'UNSPECIFIED' ) ;
#68 = CARTESIAN_POINT ( 'NONE',  ( 3.107418391570388560E-13, -1.089935651241144239E-14, 89.00000000000000000 ) ) ;
#69 = PRODUCT_DEFINITION ( 'UNKNOWN', '', #86, #258 ) ;
#70 = AXIS2_PLACEMENT_3D ( 'NONE', #38, #162, #170 ) ;
#71 = ORIENTED_EDGE ( 'NONE', *, *, #165, .F. ) ;
#72 = PERSON_AND_ORGANIZATION ( #76, #16 ) ;
#73 = PLANE ( 'NONE',  #127 ) ;
#74 = LOCAL_TIME ( 14, 57, 6.000000000000000000, #242 ) ;
#75 = PERSON_AND_ORGANIZATION ( #76, #16 ) ;
#76 = PERSON ( 'UNSPECIFIED', 'UNSPECIFIED', 'UNSPECIFIED', ('UNSPECIFIED'), ('UNSPECIFIED'), ('UNSPECIFIED') ) ;
#77 = PERSON_AND_ORGANIZATION_ROLE ( 'creator' ) ;
#78 = ADVANCED_FACE ( 'NONE', ( #151 ), #129, .F. ) ;
#79 = AXIS2_PLACEMENT_3D ( 'NONE', #22, #251, #145 ) ;
#80 = LOCAL_TIME ( 14, 57, 6.000000000000000000, #159 ) ;
#81 = APPROVAL_ROLE ( '' ) ;
#82 = CALENDAR_DATE ( 2021, 13, 10 ) ;
#83 = EDGE_LOOP ( 'NONE', ( #45 ) ) ;
#84 = DIRECTION ( 'NONE',  ( -3.491481338843133355E-15, 4.327174794786742882E-16, -1.000000000000000000 ) ) ;
#85 = CIRCLE ( 'NONE', #106, 2.750000000000006217 ) ;
#86 = PRODUCT_DEFINITION_FORMATION_WITH_SPECIFIED_SOURCE ( 'ANY', '', #163, .NOT_KNOWN. ) ;
#87 = FACE_OUTER_BOUND ( 'NONE', #236, .T. ) ;
#88 = DIRECTION ( 'NONE',  ( -3.491481338843133355E-15, 1.224646799147353207E-16, -1.000000000000000000 ) ) ;
#89 = CYLINDRICAL_SURFACE ( 'NONE', #79, 2.750000000000006217 ) ;
#90 = PRODUCT_RELATED_PRODUCT_CATEGORY ( 'detail', '', ( #163 ) ) ;
#91 = CARTESIAN_POINT ( 'NONE',  ( 0.0000000000000000000, 0.0000000000000000000, 0.0000000000000000000 ) ) ;
#92 = EDGE_CURVE ( 'NONE', #93, #93, #96, .T. ) ;
#93 = VERTEX_POINT ( 'NONE', #156 ) ;
#94 = EDGE_LOOP ( 'NONE', ( #62 ) ) ;
#95 =( NAMED_UNIT ( * ) PLANE_ANGLE_UNIT ( ) SI_UNIT ( $, .RADIAN. ) );
#96 = CIRCLE ( 'NONE', #250, 3.000000000000001776 ) ;
#97 = EDGE_LOOP ( 'NONE', ( #17 ) ) ;
#98 = APPROVAL_STATUS ( 'not_yet_approved' ) ;
#99 = EDGE_CURVE ( 'NONE', #177, #177, #243, .T. ) ;
#100 = SHAPE_DEFINITION_REPRESENTATION ( #64, #157 ) ;
#101 = PERSON_AND_ORGANIZATION_ROLE ( 'creator' ) ;
#102 = CLOSED_SHELL ( 'NONE', ( #150, #113, #19, #139, #196, #60, #78 ) ) ;
#103 = ADVANCED_FACE ( 'NONE', ( #7, #87 ), #89, .T. ) ;
#104 = DIRECTION ( 'NONE',  ( 3.491481338843133355E-15, -1.224646799147353207E-16, 1.000000000000000000 ) ) ;
#105 = DIRECTION ( 'NONE',  ( 0.0000000000000000000, 1.000000000000000000, 0.0000000000000000000 ) ) ;
#106 = AXIS2_PLACEMENT_3D ( 'NONE', #188, #229, #204 ) ;
#107 = LOCAL_TIME ( 14, 57, 6.000000000000000000, #119 ) ;
#108 = DIRECTION ( 'NONE',  ( -3.491481338843133355E-15, 1.224646799147353207E-16, -1.000000000000000000 ) ) ;
#109 = FACE_BOUND ( 'NONE', #144, .T. ) ;
#110 = FACE_OUTER_BOUND ( 'NONE', #161, .T. ) ;
#111 = APPLICATION_CONTEXT ( 'configuration controlled 3d designs of mechanical parts and assemblies' ) ;
#112 = VERTEX_POINT ( 'NONE', #189 ) ;
#113 = ADVANCED_FACE ( 'NONE', ( #5, #109 ), #217, .T. ) ;
#114 = CC_DESIGN_PERSON_AND_ORGANIZATION_ASSIGNMENT ( #75, #77, ( #86 ) ) ;
#115 = CARTESIAN_POINT ( 'NONE',  ( 1.466455746674913989E-13, -1.817455036659142925E-14, 42.00096189432331073 ) ) ;
#116 =( LENGTH_UNIT ( ) NAMED_UNIT ( * ) SI_UNIT ( .MILLI., .METRE. ) );
#117 = DIRECTION ( 'NONE',  ( 1.000000000000000000, 0.0000000000000000000, 0.0000000000000000000 ) ) ;
#118 = DIRECTION ( 'NONE',  ( 3.491481338843133355E-15, -4.327174794786742882E-16, 1.000000000000000000 ) ) ;
#119 = COORDINATED_UNIVERSAL_TIME_OFFSET ( 1, 0, .AHEAD. ) ;
#120 = PERSON_AND_ORGANIZATION ( #76, #16 ) ;
#121 = CONICAL_SURFACE ( 'NONE', #3, 2.999999999999992450, 1.221730476396026610 ) ;
#122 = CC_DESIGN_PERSON_AND_ORGANIZATION_ASSIGNMENT ( #72, #15, ( #163 ) ) ;
#123 = SECURITY_CLASSIFICATION_LEVEL ( 'unclassified' ) ;
#124 = ORIENTED_EDGE ( 'NONE', *, *, #99, .T. ) ;
#125 = FACE_OUTER_BOUND ( 'NONE', #29, .T. ) ;
#126 = CC_DESIGN_PERSON_AND_ORGANIZATION_ASSIGNMENT ( #238, #101, ( #69 ) ) ;
#127 = AXIS2_PLACEMENT_3D ( 'NONE', #43, #174, #10 ) ;
#128 = CC_DESIGN_APPROVAL ( #173, ( #69 ) ) ;
#129 = PLANE ( 'NONE',  #33 ) ;
#130 = CARTESIAN_POINT ( 'NONE',  ( 1.249950319305841615E-13, 2.249639673992777106E-32, 35.79999999999999716 ) ) ;
#131 = DIRECTION ( 'NONE',  ( 1.510825004591027855E-30, 1.000000000000000000, 4.327174794786743375E-16 ) ) ;
#132 = CC_DESIGN_PERSON_AND_ORGANIZATION_ASSIGNMENT ( #180, #53, ( #34 ) ) ;
#133 = AXIS2_PLACEMENT_3D ( 'NONE', #36, #84, #167 ) ;
#134 = CARTESIAN_POINT ( 'NONE',  ( 0.0000000000000000000, 0.0000000000000000000, 0.0000000000000000000 ) ) ;
#135 = CARTESIAN_POINT ( 'NONE',  ( 1.466455746674913989E-13, -3.000000000000017319, 42.00096189432331073 ) ) ;
#136 = CARTESIAN_POINT ( 'NONE',  ( 1.249950319305841615E-13, -2.750000000000021760, 35.79999999999999716 ) ) ;
#137 = VERTEX_POINT ( 'NONE', #213 ) ;
#138 = DATE_AND_TIME ( #31, #244 ) ;
#139 = ADVANCED_FACE ( 'NONE', ( #65, #225 ), #187, .T. ) ;
#140 = APPROVAL_PERSON_ORGANIZATION ( #220, #67, #81 ) ;
#141 = PERSON_AND_ORGANIZATION_ROLE ( 'design_supplier' ) ;
#142 = EDGE_LOOP ( 'NONE', ( #71 ) ) ;
#143 = ORIENTED_EDGE ( 'NONE', *, *, #8, .T. ) ;
#144 = EDGE_LOOP ( 'NONE', ( #221 ) ) ;
#145 = DIRECTION ( 'NONE',  ( 1.510825004591027855E-30, 1.000000000000000000, 4.327174794786743375E-16 ) ) ;
#146 = CC_DESIGN_PERSON_AND_ORGANIZATION_ASSIGNMENT ( #120, #141, ( #86 ) ) ;
#147 = MANIFOLD_SOLID_BREP ( 'Corps-Déplacer/Copier1[1]', #102 ) ;
#148 = DIRECTION ( 'NONE',  ( 1.510825004591027679E-30, 1.000000000000000000, 4.327174794786742882E-16 ) ) ;
#149 = DIRECTION ( 'NONE',  ( 4.275831445896958607E-31, 1.000000000000000000, 1.224646799147353207E-16 ) ) ;
#150 = ADVANCED_FACE ( 'NONE', ( #208, #110 ), #21, .T. ) ;
#151 = FACE_OUTER_BOUND ( 'NONE', #58, .T. ) ;
#152 = CIRCLE ( 'NONE', #185, 2.750000000000012879 ) ;
#153 =( NAMED_UNIT ( * ) SI_UNIT ( $, .STERADIAN. ) SOLID_ANGLE_UNIT ( ) );
#154 = ORIENTED_EDGE ( 'NONE', *, *, #178, .F. ) ;
#155 = DIRECTION ( 'NONE',  ( -5.135813185032641787E-31, -1.000000000000000000, -1.445602896647342861E-16 ) ) ;
#156 = CARTESIAN_POINT ( 'NONE',  ( 3.082978022198486311E-13, 2.999999999999991118, 88.29999999999998295 ) ) ;
#157 = ADVANCED_BREP_SHAPE_REPRESENTATION ( '960171', ( #147, #51, #245 ), #226 ) ;
#158 = DATE_AND_TIME ( #219, #107 ) ;
#159 = COORDINATED_UNIVERSAL_TIME_OFFSET ( 1, 0, .AHEAD. ) ;
#160 = APPROVAL_STATUS ( 'not_yet_approved' ) ;
#161 = EDGE_LOOP ( 'NONE', ( #35 ) ) ;
#162 = DIRECTION ( 'NONE',  ( -3.491481338843133355E-15, 1.224646799147353207E-16, -1.000000000000000000 ) ) ;
#163 = PRODUCT ( '960171', '960171', '', ( #25 ) ) ;
#164 = CIRCLE ( 'NONE', #199, 2.999999999999999112 ) ;
#165 = EDGE_CURVE ( 'NONE', #112, #112, #203, .T. ) ;
#166 = DIRECTION ( 'NONE',  ( -3.491481338843133355E-15, 1.224646799147353207E-16, -1.000000000000000000 ) ) ;
#167 = DIRECTION ( 'NONE',  ( 0.0000000000000000000, 1.000000000000000000, 0.0000000000000000000 ) ) ;
#168 = CARTESIAN_POINT ( 'NONE',  ( 0.0000000000000000000, 0.0000000000000000000, 0.0000000000000000000 ) ) ;
#169 = TOROIDAL_SURFACE ( 'NONE', #254, 3.750000000000012434, 0.9999999999999997780 ) ;
#170 = DIRECTION ( 'NONE',  ( -5.602705292762855516E-31, -1.000000000000000000, -1.577021341797093862E-16 ) ) ;
#171 = VERTEX_POINT ( 'NONE', #136 ) ;
#172 = AXIS2_PLACEMENT_3D ( 'NONE', #91, #6, #131 ) ;
#173 = APPROVAL ( #98, 'UNSPECIFIED' ) ;
#174 = DIRECTION ( 'NONE',  ( 3.491481338843133355E-15, -1.224646799147353207E-16, 1.000000000000000000 ) ) ;
#175 = ORIENTED_EDGE ( 'NONE', *, *, #99, .F. ) ;
#176 = UNCERTAINTY_MEASURE_WITH_UNIT (LENGTH_MEASURE( 1.000000000000000082E-05 ), #116, 'distance_accuracy_value', 'NONE');
#177 = VERTEX_POINT ( 'NONE', #23 ) ;
#178 = EDGE_CURVE ( 'NONE', #9, #9, #164, .T. ) ;
#179 = ORIENTED_EDGE ( 'NONE', *, *, #49, .F. ) ;
#180 = PERSON_AND_ORGANIZATION ( #76, #16 ) ;
#181 = AXIS2_PLACEMENT_3D ( 'NONE', #183, #228, #41 ) ;
#182 = EDGE_LOOP ( 'NONE', ( #47 ) ) ;
#183 = CARTESIAN_POINT ( 'NONE',  ( 1.249950319305841615E-13, -1.549128576533654078E-14, 35.79999999999999716 ) ) ;
#184 = DIRECTION ( 'NONE',  ( 4.275831445896958607E-31, 1.000000000000000000, 1.224646799147353207E-16 ) ) ;
#185 = AXIS2_PLACEMENT_3D ( 'NONE', #50, #209, #211 ) ;
#186 = FACE_OUTER_BOUND ( 'NONE', #262, .T. ) ;
#187 = CYLINDRICAL_SURFACE ( 'NONE', #172, 2.750000000000006217 ) ;
#188 = CARTESIAN_POINT ( 'NONE',  ( 1.249950319305841615E-13, -1.549128576533654078E-14, 35.79999999999999716 ) ) ;
#189 = CARTESIAN_POINT ( 'NONE',  ( 1.249950319305841615E-13, -2.750000000000021760, 35.79999999999999716 ) ) ;
#190 = DIRECTION ( 'NONE',  ( 0.0000000000000000000, -1.000000000000000000, 0.0000000000000000000 ) ) ;
#191 = APPROVAL ( #160, 'UNSPECIFIED' ) ;
#192 = FACE_OUTER_BOUND ( 'NONE', #66, .T. ) ;
#193 = CC_DESIGN_DATE_AND_TIME_ASSIGNMENT ( #158, #197, ( #34 ) ) ;
#194 = APPLICATION_PROTOCOL_DEFINITION ( 'international standard', 'config_control_design', 1994, #111 ) ;
#195 = CARTESIAN_POINT ( 'NONE',  ( 3.107418391570388560E-13, 2.299999999999990496, 89.00000000000000000 ) ) ;
#196 = ADVANCED_FACE ( 'NONE', ( #230, #192 ), #231, .T. ) ;
#197 = DATE_TIME_ROLE ( 'classification_date' ) ;
#198 = APPROVAL_DATE_TIME ( #216, #67 ) ;
#199 = AXIS2_PLACEMENT_3D ( 'NONE', #115, #118, #190 ) ;
#200 = APPROVAL_STATUS ( 'not_yet_approved' ) ;
#201 = CALENDAR_DATE ( 2021, 13, 10 ) ;
#202 = PERSON_AND_ORGANIZATION ( #76, #16 ) ;
#203 = CIRCLE ( 'NONE', #181, 2.750000000000006217 ) ;
#204 = DIRECTION ( 'NONE',  ( 0.0000000000000000000, -1.000000000000000000, 0.0000000000000000000 ) ) ;
#205 = AXIS2_PLACEMENT_3D ( 'NONE', #168, #253, #149 ) ;
#206 = ORIENTED_EDGE ( 'NONE', *, *, #247, .F. ) ;
#207 = DIRECTION ( 'NONE',  ( -3.491481338843133355E-15, 1.224646799147353207E-16, -1.000000000000000000 ) ) ;
#208 = FACE_OUTER_BOUND ( 'NONE', #12, .T. ) ;
#209 = DIRECTION ( 'NONE',  ( -3.491481338843133355E-15, 4.327174794786742882E-16, -1.000000000000000000 ) ) ;
#210 = ADVANCED_FACE ( 'NONE', ( #235 ), #121, .T. ) ;
#211 = DIRECTION ( 'NONE',  ( 0.0000000000000000000, 1.000000000000000000, 0.0000000000000000000 ) ) ;
#212 = CIRCLE ( 'NONE', #133, 2.883974596215574504 ) ;
#213 = CARTESIAN_POINT ( 'NONE',  ( 1.459439199636429616E-13, 2.883974596215556296, 41.79999999999999716 ) ) ;
#214 = ORIENTED_EDGE ( 'NONE', *, *, #178, .T. ) ;
#215 = APPROVAL_ROLE ( '' ) ;
#216 = DATE_AND_TIME ( #82, #227 ) ;
#217 = CONICAL_SURFACE ( 'NONE', #54, 2.300000000000001155, 0.7853981633974442822 ) ;
#218 = CC_DESIGN_SECURITY_CLASSIFICATION ( #34, ( #86 ) ) ;
#219 = CALENDAR_DATE ( 2021, 13, 10 ) ;
#220 = PERSON_AND_ORGANIZATION ( #76, #16 ) ;
#221 = ORIENTED_EDGE ( 'NONE', *, *, #49, .T. ) ;
#222 = EDGE_LOOP ( 'NONE', ( #124 ) ) ;
#223 = CLOSED_SHELL ( 'NONE', ( #210, #103, #263 ) ) ;
#224 = FACE_OUTER_BOUND ( 'NONE', #234, .T. ) ;
#225 = FACE_OUTER_BOUND ( 'NONE', #97, .T. ) ;
#226 =( GEOMETRIC_REPRESENTATION_CONTEXT ( 3 ) GLOBAL_UNCERTAINTY_ASSIGNED_CONTEXT ( ( #176 ) ) GLOBAL_UNIT_ASSIGNED_CONTEXT ( ( #116, #95, #153 ) ) REPRESENTATION_CONTEXT ( 'NONE', 'WORKASPACE' ) );
#227 = LOCAL_TIME ( 14, 57, 6.000000000000000000, #32 ) ;
#228 = DIRECTION ( 'NONE',  ( -3.491481338843133355E-15, 1.224646799147353207E-16, -1.000000000000000000 ) ) ;
#229 = DIRECTION ( 'NONE',  ( -3.491481338843133355E-15, 1.224646799147353207E-16, -1.000000000000000000 ) ) ;
#230 = FACE_BOUND ( 'NONE', #83, .T. ) ;
#231 = CONICAL_SURFACE ( 'NONE', #257, 3.500000000000015987, 0.5235987755982984826 ) ;
#232 = CARTESIAN_POINT ( 'NONE',  ( 3.812385842504467288E-15, -1.337204947137065176E-16, 1.091910702798618571 ) ) ;
#233 = DIRECTION ( 'NONE',  ( 0.0000000000000000000, -1.000000000000000000, 0.0000000000000000000 ) ) ;
#234 = EDGE_LOOP ( 'NONE', ( #179 ) ) ;
#235 = FACE_OUTER_BOUND ( 'NONE', #222, .T. ) ;
#236 = EDGE_LOOP ( 'NONE', ( #175 ) ) ;
#237 = DIRECTION ( 'NONE',  ( 3.491481338843133355E-15, -1.224646799147353207E-16, 1.000000000000000000 ) ) ;
#238 = PERSON_AND_ORGANIZATION ( #76, #16 ) ;
#239 = APPROVAL_ROLE ( '' ) ;
#240 = APPLICATION_CONTEXT ( 'configuration controlled 3d designs of mechanical parts and assemblies' ) ;
#241 = CC_DESIGN_DATE_AND_TIME_ASSIGNMENT ( #138, #261, ( #69 ) ) ;
#242 = COORDINATED_UNIVERSAL_TIME_OFFSET ( 1, 0, .AHEAD. ) ;
#243 = CIRCLE ( 'NONE', #70, 2.750000000000006217 ) ;
#244 = LOCAL_TIME ( 14, 57, 6.000000000000000000, #55 ) ;
#245 = AXIS2_PLACEMENT_3D ( 'NONE', #134, #26, #117 ) ;
#246 = CALENDAR_DATE ( 2021, 13, 10 ) ;
#247 = EDGE_CURVE ( 'NONE', #24, #24, #152, .T. ) ;
#248 = APPLICATION_PROTOCOL_DEFINITION ( 'international standard', 'config_control_design', 1994, #240 ) ;
#249 = EDGE_LOOP ( 'NONE', ( #259 ) ) ;
#250 = AXIS2_PLACEMENT_3D ( 'NONE', #2, #207, #63 ) ;
#251 = DIRECTION ( 'NONE',  ( -3.491481338843133355E-15, 4.327174794786742882E-16, -1.000000000000000000 ) ) ;
#252 = CARTESIAN_POINT ( 'NONE',  ( 1.441981792942214013E-13, -1.778091562876227272E-14, 41.29999999999999716 ) ) ;
#253 = DIRECTION ( 'NONE',  ( -3.491481338843133355E-15, 1.224646799147353207E-16, -1.000000000000000000 ) ) ;
#254 = AXIS2_PLACEMENT_3D ( 'NONE', #252, #20, #148 ) ;
#255 = DIRECTION ( 'NONE',  ( -4.275831445896958607E-31, -1.000000000000000000, -1.224646799147353207E-16 ) ) ;
#256 = DIRECTION ( 'NONE',  ( 3.491481338843133355E-15, -4.327174794786742882E-16, 1.000000000000000000 ) ) ;
#257 = AXIS2_PLACEMENT_3D ( 'NONE', #44, #256, #233 ) ;
#258 = DESIGN_CONTEXT ( 'detailed design', #240, 'design' ) ;
#259 = ORIENTED_EDGE ( 'NONE', *, *, #247, .T. ) ;
#260 = AXIS2_PLACEMENT_3D ( 'NONE', #39, #108, #105 ) ;
#261 = DATE_TIME_ROLE ( 'creation_date' ) ;
#262 = EDGE_LOOP ( 'NONE', ( #1 ) ) ;
#263 = ADVANCED_FACE ( 'NONE', ( #46 ), #73, .T. ) ;
ENDSEC;
END-ISO-10303-21;
