ISO-10303-21;
HEADER;
FILE_DESCRIPTION (( 'STEP AP203' ),
    '1' );
FILE_NAME ('960170.step',
    '2021-10-13T12:57:06',
    ( '' ),
    ( '' ),
    'SwSTEP 2.0',
    'SolidWorks 2019',
    '' );
FILE_SCHEMA (( 'CONFIG_CONTROL_DESIGN' ));
ENDSEC;

DATA;
#1 =( NAMED_UNIT ( * ) PLANE_ANGLE_UNIT ( ) SI_UNIT ( $, .RADIAN. ) );
#2 = TOROIDAL_SURFACE ( 'NONE', #198, 3.650000000000012790, 1.000000000000003997 ) ;
#3 = APPROVAL_STATUS ( 'not_yet_approved' ) ;
#4 = EDGE_LOOP ( 'NONE', ( #126 ) ) ;
#5 = CARTESIAN_POINT ( 'NONE',  ( 0.0000000000000000000, 0.0000000000000000000, 0.0000000000000000000 ) ) ;
#6 = DATE_TIME_ROLE ( 'creation_date' ) ;
#7 = ORIENTED_EDGE ( 'NONE', *, *, #116, .T. ) ;
#8 = CLOSED_SHELL ( 'NONE', ( #231, #141, #119, #37, #202, #151, #105 ) ) ;
#9 = FACE_OUTER_BOUND ( 'NONE', #4, .T. ) ;
#10 = CIRCLE ( 'NONE', #21, 2.650000000000012790 ) ;
#11 = CYLINDRICAL_SURFACE ( 'NONE', #137, 2.650000000000006573 ) ;
#12 = PRODUCT ( '960170', '960170', '', ( #23 ) ) ;
#13 = CARTESIAN_POINT ( 'NONE',  ( 1.204561061900881197E-13, -1.492875304201426452E-14, 34.50000000000000000 ) ) ;
#14 = MANIFOLD_SOLID_BREP ( 'Corps-Déplacer/Copier1[2]', #63 ) ;
#15 = LOCAL_TIME ( 14, 57, 6.000000000000000000, #186 ) ;
#16 = DIRECTION ( 'NONE',  ( -3.491481338843133355E-15, 1.224646799147353207E-16, -1.000000000000000000 ) ) ;
#17 = CC_DESIGN_DATE_AND_TIME_ASSIGNMENT ( #228, #197, ( #132 ) ) ;
#18 = DIRECTION ( 'NONE',  ( 0.0000000000000000000, 1.000000000000000000, 0.0000000000000000000 ) ) ;
#19 = DIRECTION ( 'NONE',  ( -4.275831445896958607E-31, -1.000000000000000000, -1.224646799147353207E-16 ) ) ;
#20 = AXIS2_PLACEMENT_3D ( 'NONE', #136, #152, #211 ) ;
#21 = AXIS2_PLACEMENT_3D ( 'NONE', #120, #142, #102 ) ;
#22 = APPROVAL ( #148, 'UNSPECIFIED' ) ;
#23 = MECHANICAL_CONTEXT ( 'NONE', #180, 'mechanical' ) ;
#24 = PERSON_AND_ORGANIZATION_ROLE ( 'classification_officer' ) ;
#25 = APPROVAL_DATE_TIME ( #108, #22 ) ;
#26 = AXIS2_PLACEMENT_3D ( 'NONE', #219, #42, #60 ) ;
#27 = DATE_AND_TIME ( #168, #31 ) ;
#28 = APPROVAL_ROLE ( '' ) ;
#29 = ORIENTED_EDGE ( 'NONE', *, *, #130, .F. ) ;
#30 = DIRECTION ( 'NONE',  ( -3.491481338843133355E-15, 1.224646799147353207E-16, -1.000000000000000000 ) ) ;
#31 = LOCAL_TIME ( 14, 57, 6.000000000000000000, #183 ) ;
#32 = ORIENTED_EDGE ( 'NONE', *, *, #232, .F. ) ;
#33 = CARTESIAN_POINT ( 'NONE',  ( 1.407066979553782805E-13, -1.743851442299057350E-14, 40.30000000000000426 ) ) ;
#34 = EDGE_LOOP ( 'NONE', ( #7 ) ) ;
#35 = CARTESIAN_POINT ( 'NONE',  ( 3.367607494212295531E-15, -2.650000000000006573, 0.9645211208054509378 ) ) ;
#36 = FACE_BOUND ( 'NONE', #34, .T. ) ;
#37 = ADVANCED_FACE ( 'NONE', ( #156, #255 ), #174, .T. ) ;
#38 = CIRCLE ( 'NONE', #216, 3.000000000000001776 ) ;
#39 = DIRECTION ( 'NONE',  ( -4.360596100499391521E-31, -1.000000000000000000, -1.227398685832643599E-16 ) ) ;
#40 = CYLINDRICAL_SURFACE ( 'NONE', #172, 2.999999999999999112 ) ;
#41 = EDGE_CURVE ( 'NONE', #99, #99, #112, .T. ) ;
#42 = DIRECTION ( 'NONE',  ( 3.491481338843133355E-15, -4.327174794786742882E-16, 1.000000000000000000 ) ) ;
#43 = AXIS2_PLACEMENT_3D ( 'NONE', #13, #191, #194 ) ;
#44 = PERSON_AND_ORGANIZATION_ROLE ( 'creator' ) ;
#45 = EDGE_LOOP ( 'NONE', ( #223 ) ) ;
#46 = PERSON_AND_ORGANIZATION ( #127, #100 ) ;
#47 = CALENDAR_DATE ( 2021, 13, 10 ) ;
#48 = CC_DESIGN_APPROVAL ( #22, ( #124 ) ) ;
#49 = PERSON_AND_ORGANIZATION ( #127, #100 ) ;
#50 = CC_DESIGN_PERSON_AND_ORGANIZATION_ASSIGNMENT ( #149, #123, ( #139 ) ) ;
#51 = DIRECTION ( 'NONE',  ( 3.491481338843133355E-15, -1.224646799147353207E-16, 1.000000000000000000 ) ) ;
#52 = PLANE ( 'NONE',  #250 ) ;
#53 = CC_DESIGN_PERSON_AND_ORGANIZATION_ASSIGNMENT ( #46, #182, ( #12 ) ) ;
#54 = PLANE ( 'NONE',  #170 ) ;
#55 = AXIS2_PLACEMENT_3D ( 'NONE', #163, #258, #162 ) ;
#56 = VERTEX_POINT ( 'NONE', #35 ) ;
#57 = VERTEX_POINT ( 'NONE', #178 ) ;
#58 = DESIGN_CONTEXT ( 'detailed design', #200, 'design' ) ;
#59 = CARTESIAN_POINT ( 'NONE',  ( 3.082978022198486311E-13, -1.081363123647112810E-14, 88.29999999999998295 ) ) ;
#60 = DIRECTION ( 'NONE',  ( 0.0000000000000000000, -1.000000000000000000, 0.0000000000000000000 ) ) ;
#61 = DIRECTION ( 'NONE',  ( 3.491481338843133355E-15, -1.224646799147353207E-16, 1.000000000000000000 ) ) ;
#62 = CIRCLE ( 'NONE', #43, 2.650000000000006573 ) ;
#63 = CLOSED_SHELL ( 'NONE', ( #78, #66, #133 ) ) ;
#64 = APPROVAL_PERSON_ORGANIZATION ( #242, #247, #147 ) ;
#65 = APPLICATION_PROTOCOL_DEFINITION ( 'international standard', 'config_control_design', 1994, #200 ) ;
#66 = ADVANCED_FACE ( 'NONE', ( #229, #155 ), #11, .T. ) ;
#67 = EDGE_LOOP ( 'NONE', ( #189 ) ) ;
#68 = CALENDAR_DATE ( 2021, 13, 10 ) ;
#69 = ORIENTED_EDGE ( 'NONE', *, *, #190, .T. ) ;
#70 = PERSON_AND_ORGANIZATION ( #127, #100 ) ;
#71 = AXIS2_PLACEMENT_3D ( 'NONE', #33, #256, #235 ) ;
#72 = CALENDAR_DATE ( 2021, 13, 10 ) ;
#73 = DIRECTION ( 'NONE',  ( 1.510825004591027855E-30, 1.000000000000000000, 4.327174794786742882E-16 ) ) ;
#74 = EDGE_LOOP ( 'NONE', ( #111 ) ) ;
#75 = DIRECTION ( 'NONE',  ( -3.491481338843133355E-15, 4.327174794786742882E-16, -1.000000000000000000 ) ) ;
#76 = CIRCLE ( 'NONE', #71, 2.783974596215573083 ) ;
#77 = CARTESIAN_POINT ( 'NONE',  ( 1.420130949664822186E-13, -1.760042301335144399E-14, 40.67416697508021173 ) ) ;
#78 = ADVANCED_FACE ( 'NONE', ( #157 ), #158, .T. ) ;
#79 = DIRECTION ( 'NONE',  ( -3.491481338843133355E-15, 4.327174794786742882E-16, -1.000000000000000000 ) ) ;
#80 = FACE_OUTER_BOUND ( 'NONE', #188, .T. ) ;
#81 = CC_DESIGN_SECURITY_CLASSIFICATION ( #132, ( #139 ) ) ;
#82 = CARTESIAN_POINT ( 'NONE',  ( 1.204561061900881197E-13, -2.650000000000021227, 34.50000000000000000 ) ) ;
#83 = DIRECTION ( 'NONE',  ( -3.491481338843133355E-15, 4.327174794786742882E-16, -1.000000000000000000 ) ) ;
#84 = DIRECTION ( 'NONE',  ( 4.275831445896958607E-31, 1.000000000000000000, 1.224646799147353207E-16 ) ) ;
#85 = PRODUCT_DEFINITION_SHAPE ( 'NONE', 'NONE',  #124 ) ;
#86 = AXIS2_PLACEMENT_3D ( 'NONE', #5, #204, #220 ) ;
#87 = DIRECTION ( 'NONE',  ( 1.510825004591027855E-30, 1.000000000000000000, 4.327174794786742882E-16 ) ) ;
#88 = AXIS2_PLACEMENT_3D ( 'NONE', #215, #61, #19 ) ;
#89 = SECURITY_CLASSIFICATION_LEVEL ( 'unclassified' ) ;
#90 = ORIENTED_EDGE ( 'NONE', *, *, #130, .T. ) ;
#91 = COORDINATED_UNIVERSAL_TIME_OFFSET ( 1, 0, .AHEAD. ) ;
#92 = EDGE_CURVE ( 'NONE', #121, #121, #76, .T. ) ;
#93 = AXIS2_PLACEMENT_3D ( 'NONE', #77, #138, #98 ) ;
#94 = ORIENTED_EDGE ( 'NONE', *, *, #243, .T. ) ;
#95 = ORIENTED_EDGE ( 'NONE', *, *, #190, .F. ) ;
#96 = LOCAL_TIME ( 14, 57, 6.000000000000000000, #245 ) ;
#97 = APPROVAL_DATE_TIME ( #249, #185 ) ;
#98 = DIRECTION ( 'NONE',  ( 0.0000000000000000000, -1.000000000000000000, 0.0000000000000000000 ) ) ;
#99 = VERTEX_POINT ( 'NONE', #218 ) ;
#100 = ORGANIZATION ( 'UNSPECIFIED', 'UNSPECIFIED', '' ) ;
#101 = DIRECTION ( 'NONE',  ( 4.275831445896958607E-31, 1.000000000000000000, 1.224646799147353207E-16 ) ) ;
#102 = DIRECTION ( 'NONE',  ( 0.0000000000000000000, 1.000000000000000000, 0.0000000000000000000 ) ) ;
#103 = CARTESIAN_POINT ( 'NONE',  ( 1.204561061900881197E-13, -1.492875304201426452E-14, 34.50000000000000000 ) ) ;
#104 =( NAMED_UNIT ( * ) SI_UNIT ( $, .STERADIAN. ) SOLID_ANGLE_UNIT ( ) );
#105 = ADVANCED_FACE ( 'NONE', ( #230 ), #54, .F. ) ;
#106 = PERSON_AND_ORGANIZATION_ROLE ( 'creator' ) ;
#107 = CIRCLE ( 'NONE', #177, 2.650000000000006573 ) ;
#108 = DATE_AND_TIME ( #68, #15 ) ;
#109 = EDGE_LOOP ( 'NONE', ( #94 ) ) ;
#110 = ORIENTED_EDGE ( 'NONE', *, *, #41, .T. ) ;
#111 = ORIENTED_EDGE ( 'NONE', *, *, #210, .T. ) ;
#112 = CIRCLE ( 'NONE', #93, 2.999999999999999112 ) ;
#113 = DIRECTION ( 'NONE',  ( 0.0000000000000000000, 1.000000000000000000, 0.0000000000000000000 ) ) ;
#114 = CIRCLE ( 'NONE', #192, 2.300000000000001155 ) ;
#115 = EDGE_LOOP ( 'NONE', ( #32 ) ) ;
#116 = EDGE_CURVE ( 'NONE', #159, #159, #114, .T. ) ;
#117 = CARTESIAN_POINT ( 'NONE',  ( 1.204561061900881197E-13, 2.249639673992777106E-32, 34.50000000000000000 ) ) ;
#118 = FACE_OUTER_BOUND ( 'NONE', #150, .T. ) ;
#119 = ADVANCED_FACE ( 'NONE', ( #9 ), #52, .F. ) ;
#120 = CARTESIAN_POINT ( 'NONE',  ( 1.389609572859566949E-13, -1.722215568325123478E-14, 39.79999999999999716 ) ) ;
#121 = VERTEX_POINT ( 'NONE', #239 ) ;
#122 = CARTESIAN_POINT ( 'NONE',  ( 0.0000000000000000000, 0.0000000000000000000, 0.0000000000000000000 ) ) ;
#123 = PERSON_AND_ORGANIZATION_ROLE ( 'design_supplier' ) ;
#124 = PRODUCT_DEFINITION ( 'UNKNOWN', '', #139, #58 ) ;
#125 = APPROVAL_STATUS ( 'not_yet_approved' ) ;
#126 = ORIENTED_EDGE ( 'NONE', *, *, #116, .F. ) ;
#127 = PERSON ( 'UNSPECIFIED', 'UNSPECIFIED', 'UNSPECIFIED', ('UNSPECIFIED'), ('UNSPECIFIED'), ('UNSPECIFIED') ) ;
#128 = EDGE_LOOP ( 'NONE', ( #95 ) ) ;
#129 = DIRECTION ( 'NONE',  ( -4.275831445896958607E-31, -1.000000000000000000, -1.224646799147353207E-16 ) ) ;
#130 = EDGE_CURVE ( 'NONE', #238, #238, #62, .T. ) ;
#131 = EDGE_LOOP ( 'NONE', ( #184 ) ) ;
#132 = SECURITY_CLASSIFICATION ( '', '', #89 ) ;
#133 = ADVANCED_FACE ( 'NONE', ( #118 ), #241, .T. ) ;
#134 = CARTESIAN_POINT ( 'NONE',  ( 3.107418391570388560E-13, 1.724723750061120922E-32, 89.00000000000000000 ) ) ;
#135 = SHAPE_DEFINITION_REPRESENTATION ( #85, #237 ) ;
#136 = CARTESIAN_POINT ( 'NONE',  ( 3.812385842504467288E-15, -1.337204947137065176E-16, 1.091910702798618571 ) ) ;
#137 = AXIS2_PLACEMENT_3D ( 'NONE', #234, #75, #233 ) ;
#138 = DIRECTION ( 'NONE',  ( 3.491481338843133355E-15, -4.327174794786742882E-16, 1.000000000000000000 ) ) ;
#139 = PRODUCT_DEFINITION_FORMATION_WITH_SPECIFIED_SOURCE ( 'ANY', '', #12, .NOT_KNOWN. ) ;
#140 = CARTESIAN_POINT ( 'NONE',  ( 3.082978022198486311E-13, 2.999999999999991118, 88.29999999999998295 ) ) ;
#141 = ADVANCED_FACE ( 'NONE', ( #175, #36 ), #153, .T. ) ;
#142 = DIRECTION ( 'NONE',  ( -3.491481338843133355E-15, 4.327174794786742882E-16, -1.000000000000000000 ) ) ;
#143 = CONICAL_SURFACE ( 'NONE', #26, 3.500000000000015099, 0.5235987755983003700 ) ;
#144 = CC_DESIGN_APPROVAL ( #185, ( #132 ) ) ;
#145 = FACE_OUTER_BOUND ( 'NONE', #248, .T. ) ;
#146 = DIRECTION ( 'NONE',  ( -3.491481338843133355E-15, 1.224646799147353207E-16, -1.000000000000000000 ) ) ;
#147 = APPROVAL_ROLE ( '' ) ;
#148 = APPROVAL_STATUS ( 'not_yet_approved' ) ;
#149 = PERSON_AND_ORGANIZATION ( #127, #100 ) ;
#150 = EDGE_LOOP ( 'NONE', ( #225 ) ) ;
#151 = ADVANCED_FACE ( 'NONE', ( #193, #214 ), #2, .F. ) ;
#152 = DIRECTION ( 'NONE',  ( 3.491481338843133355E-15, -1.224646799147353207E-16, 1.000000000000000000 ) ) ;
#153 = CONICAL_SURFACE ( 'NONE', #55, 2.300000000000001155, 0.7853981633974442822 ) ;
#154 = APPROVAL_PERSON_ORGANIZATION ( #167, #185, #28 ) ;
#155 = FACE_OUTER_BOUND ( 'NONE', #131, .T. ) ;
#156 = FACE_OUTER_BOUND ( 'NONE', #251, .T. ) ;
#157 = FACE_OUTER_BOUND ( 'NONE', #74, .T. ) ;
#158 = CONICAL_SURFACE ( 'NONE', #20, 2.999999999999992450, 1.221730476396026610 ) ;
#159 = VERTEX_POINT ( 'NONE', #181 ) ;
#160 = CARTESIAN_POINT ( 'NONE',  ( 3.367607494212296714E-15, -1.181197703304413608E-16, 0.9645211208054512708 ) ) ;
#161 = CC_DESIGN_DATE_AND_TIME_ASSIGNMENT ( #27, #6, ( #124 ) ) ;
#162 = DIRECTION ( 'NONE',  ( 0.0000000000000000000, 1.000000000000000000, 0.0000000000000000000 ) ) ;
#163 = CARTESIAN_POINT ( 'NONE',  ( 3.107418391570388560E-13, -1.089935651241144239E-14, 89.00000000000000000 ) ) ;
#164 = APPROVAL_PERSON_ORGANIZATION ( #263, #22, #166 ) ;
#165 = VERTEX_POINT ( 'NONE', #260 ) ;
#166 = APPROVAL_ROLE ( '' ) ;
#167 = PERSON_AND_ORGANIZATION ( #127, #100 ) ;
#168 = CALENDAR_DATE ( 2021, 13, 10 ) ;
#169 = CALENDAR_DATE ( 2021, 13, 10 ) ;
#170 = AXIS2_PLACEMENT_3D ( 'NONE', #117, #51, #129 ) ;
#171 = AXIS2_PLACEMENT_3D ( 'NONE', #160, #176, #39 ) ;
#172 = AXIS2_PLACEMENT_3D ( 'NONE', #122, #196, #101 ) ;
#173 = ORIENTED_EDGE ( 'NONE', *, *, #232, .T. ) ;
#174 = CYLINDRICAL_SURFACE ( 'NONE', #244, 2.650000000000006573 ) ;
#175 = FACE_OUTER_BOUND ( 'NONE', #128, .T. ) ;
#176 = DIRECTION ( 'NONE',  ( -3.491481338843133355E-15, 1.224646799147353207E-16, -1.000000000000000000 ) ) ;
#177 = AXIS2_PLACEMENT_3D ( 'NONE', #103, #16, #179 ) ;
#178 = CARTESIAN_POINT ( 'NONE',  ( 1.389609572859566949E-13, 2.649999999999995026, 39.79999999999999716 ) ) ;
#179 = DIRECTION ( 'NONE',  ( 0.0000000000000000000, -1.000000000000000000, 0.0000000000000000000 ) ) ;
#180 = APPLICATION_CONTEXT ( 'configuration controlled 3d designs of mechanical parts and assemblies' ) ;
#181 = CARTESIAN_POINT ( 'NONE',  ( 3.107418391570388560E-13, 2.299999999999990496, 89.00000000000000000 ) ) ;
#182 = PERSON_AND_ORGANIZATION_ROLE ( 'design_owner' ) ;
#183 = COORDINATED_UNIVERSAL_TIME_OFFSET ( 1, 0, .AHEAD. ) ;
#184 = ORIENTED_EDGE ( 'NONE', *, *, #210, .F. ) ;
#185 = APPROVAL ( #125, 'UNSPECIFIED' ) ;
#186 = COORDINATED_UNIVERSAL_TIME_OFFSET ( 1, 0, .AHEAD. ) ;
#187 = MANIFOLD_SOLID_BREP ( 'Corps-Déplacer/Copier1[1]', #8 ) ;
#188 = EDGE_LOOP ( 'NONE', ( #110 ) ) ;
#189 = ORIENTED_EDGE ( 'NONE', *, *, #41, .F. ) ;
#190 = EDGE_CURVE ( 'NONE', #262, #262, #38, .T. ) ;
#191 = DIRECTION ( 'NONE',  ( -3.491481338843133355E-15, 1.224646799147353207E-16, -1.000000000000000000 ) ) ;
#192 = AXIS2_PLACEMENT_3D ( 'NONE', #207, #30, #113 ) ;
#193 = FACE_OUTER_BOUND ( 'NONE', #115, .T. ) ;
#194 = DIRECTION ( 'NONE',  ( 0.0000000000000000000, -1.000000000000000000, 0.0000000000000000000 ) ) ;
#195 = PRODUCT_RELATED_PRODUCT_CATEGORY ( 'detail', '', ( #12 ) ) ;
#196 = DIRECTION ( 'NONE',  ( -3.491481338843133355E-15, 1.224646799147353207E-16, -1.000000000000000000 ) ) ;
#197 = DATE_TIME_ROLE ( 'classification_date' ) ;
#198 = AXIS2_PLACEMENT_3D ( 'NONE', #257, #83, #87 ) ;
#199 = DATE_AND_TIME ( #72, #96 ) ;
#200 = APPLICATION_CONTEXT ( 'configuration controlled 3d designs of mechanical parts and assemblies' ) ;
#201 = APPLICATION_PROTOCOL_DEFINITION ( 'international standard', 'config_control_design', 1994, #180 ) ;
#202 = ADVANCED_FACE ( 'NONE', ( #240, #217 ), #143, .T. ) ;
#203 = ORIENTED_EDGE ( 'NONE', *, *, #92, .F. ) ;
#204 = DIRECTION ( 'NONE',  ( 0.0000000000000000000, 0.0000000000000000000, 1.000000000000000000 ) ) ;
#205 = CC_DESIGN_PERSON_AND_ORGANIZATION_ASSIGNMENT ( #222, #106, ( #124 ) ) ;
#206 = EDGE_LOOP ( 'NONE', ( #29 ) ) ;
#207 = CARTESIAN_POINT ( 'NONE',  ( 3.107418391570388560E-13, -1.089935651241144239E-14, 89.00000000000000000 ) ) ;
#208 = LOCAL_TIME ( 14, 57, 6.000000000000000000, #91 ) ;
#209 = LOCAL_TIME ( 14, 57, 6.000000000000000000, #226 ) ;
#210 = EDGE_CURVE ( 'NONE', #56, #56, #253, .T. ) ;
#211 = DIRECTION ( 'NONE',  ( -5.135813185032641787E-31, -1.000000000000000000, -1.445602896647342861E-16 ) ) ;
#212 = EDGE_LOOP ( 'NONE', ( #90 ) ) ;
#213 = CC_DESIGN_PERSON_AND_ORGANIZATION_ASSIGNMENT ( #70, #44, ( #139 ) ) ;
#214 = FACE_OUTER_BOUND ( 'NONE', #45, .T. ) ;
#215 = CARTESIAN_POINT ( 'NONE',  ( 1.204561061900881197E-13, 2.249639673992777106E-32, 34.50000000000000000 ) ) ;
#216 = AXIS2_PLACEMENT_3D ( 'NONE', #59, #146, #18 ) ;
#217 = FACE_OUTER_BOUND ( 'NONE', #67, .T. ) ;
#218 = CARTESIAN_POINT ( 'NONE',  ( 1.420130949664822186E-13, -3.000000000000016875, 40.67416697508021173 ) ) ;
#219 = CARTESIAN_POINT ( 'NONE',  ( 1.450368065027597482E-13, -1.797516734324155750E-14, 41.54019237886467408 ) ) ;
#220 = DIRECTION ( 'NONE',  ( 1.000000000000000000, 0.0000000000000000000, 0.0000000000000000000 ) ) ;
#221 =( GEOMETRIC_REPRESENTATION_CONTEXT ( 3 ) GLOBAL_UNCERTAINTY_ASSIGNED_CONTEXT ( ( #259 ) ) GLOBAL_UNIT_ASSIGNED_CONTEXT ( ( #224, #1, #104 ) ) REPRESENTATION_CONTEXT ( 'NONE', 'WORKASPACE' ) );
#222 = PERSON_AND_ORGANIZATION ( #127, #100 ) ;
#223 = ORIENTED_EDGE ( 'NONE', *, *, #92, .T. ) ;
#224 =( LENGTH_UNIT ( ) NAMED_UNIT ( * ) SI_UNIT ( .MILLI., .METRE. ) );
#225 = ORIENTED_EDGE ( 'NONE', *, *, #243, .F. ) ;
#226 = COORDINATED_UNIVERSAL_TIME_OFFSET ( 1, 0, .AHEAD. ) ;
#227 = EDGE_LOOP ( 'NONE', ( #203 ) ) ;
#228 = DATE_AND_TIME ( #47, #209 ) ;
#229 = FACE_OUTER_BOUND ( 'NONE', #109, .T. ) ;
#230 = FACE_OUTER_BOUND ( 'NONE', #212, .T. ) ;
#231 = ADVANCED_FACE ( 'NONE', ( #80, #145 ), #40, .T. ) ;
#232 = EDGE_CURVE ( 'NONE', #57, #57, #10, .T. ) ;
#233 = DIRECTION ( 'NONE',  ( 1.510825004591027855E-30, 1.000000000000000000, 4.327174794786742882E-16 ) ) ;
#234 = CARTESIAN_POINT ( 'NONE',  ( 0.0000000000000000000, 0.0000000000000000000, 0.0000000000000000000 ) ) ;
#235 = DIRECTION ( 'NONE',  ( 0.0000000000000000000, 1.000000000000000000, 0.0000000000000000000 ) ) ;
#236 = CC_DESIGN_PERSON_AND_ORGANIZATION_ASSIGNMENT ( #49, #24, ( #132 ) ) ;
#237 = ADVANCED_BREP_SHAPE_REPRESENTATION ( '960170', ( #187, #14, #86 ), #221 ) ;
#238 = VERTEX_POINT ( 'NONE', #82 ) ;
#239 = CARTESIAN_POINT ( 'NONE',  ( 1.407066979553782805E-13, 2.783974596215555763, 40.30000000000000426 ) ) ;
#240 = FACE_BOUND ( 'NONE', #227, .T. ) ;
#241 = PLANE ( 'NONE',  #88 ) ;
#242 = PERSON_AND_ORGANIZATION ( #127, #100 ) ;
#243 = EDGE_CURVE ( 'NONE', #165, #165, #107, .T. ) ;
#244 = AXIS2_PLACEMENT_3D ( 'NONE', #252, #79, #73 ) ;
#245 = COORDINATED_UNIVERSAL_TIME_OFFSET ( 1, 0, .AHEAD. ) ;
#246 = APPROVAL_DATE_TIME ( #199, #247 ) ;
#247 = APPROVAL ( #3, 'UNSPECIFIED' ) ;
#248 = EDGE_LOOP ( 'NONE', ( #69 ) ) ;
#249 = DATE_AND_TIME ( #169, #208 ) ;
#250 = AXIS2_PLACEMENT_3D ( 'NONE', #134, #261, #84 ) ;
#251 = EDGE_LOOP ( 'NONE', ( #173 ) ) ;
#252 = CARTESIAN_POINT ( 'NONE',  ( 0.0000000000000000000, 0.0000000000000000000, 0.0000000000000000000 ) ) ;
#253 = CIRCLE ( 'NONE', #171, 2.650000000000006573 ) ;
#254 = CC_DESIGN_APPROVAL ( #247, ( #139 ) ) ;
#255 = FACE_OUTER_BOUND ( 'NONE', #206, .T. ) ;
#256 = DIRECTION ( 'NONE',  ( -3.491481338843133355E-15, 4.327174794786742882E-16, -1.000000000000000000 ) ) ;
#257 = CARTESIAN_POINT ( 'NONE',  ( 1.389609572859566949E-13, -1.734723475976807094E-14, 39.79999999999999716 ) ) ;
#258 = DIRECTION ( 'NONE',  ( -3.491481338843133355E-15, 1.224646799147353207E-16, -1.000000000000000000 ) ) ;
#259 = UNCERTAINTY_MEASURE_WITH_UNIT (LENGTH_MEASURE( 1.000000000000000082E-05 ), #224, 'distance_accuracy_value', 'NONE');
#260 = CARTESIAN_POINT ( 'NONE',  ( 1.204561061900881197E-13, -2.650000000000021227, 34.50000000000000000 ) ) ;
#261 = DIRECTION ( 'NONE',  ( -3.491481338843133355E-15, 1.224646799147353207E-16, -1.000000000000000000 ) ) ;
#262 = VERTEX_POINT ( 'NONE', #140 ) ;
#263 = PERSON_AND_ORGANIZATION ( #127, #100 ) ;
ENDSEC;
END-ISO-10303-21;
