ISO-10303-21;
HEADER;
FILE_DESCRIPTION (( 'STEP AP203' ),
    '1' );
FILE_NAME ('960169.step',
    '2021-10-13T12:57:05',
    ( '' ),
    ( '' ),
    'SwSTEP 2.0',
    'SolidWorks 2019',
    '' );
FILE_SCHEMA (( 'CONFIG_CONTROL_DESIGN' ));
ENDSEC;

DATA;
#1 = CARTESIAN_POINT ( 'NONE',  ( 0.0000000000000000000, 0.0000000000000000000, 0.0000000000000000000 ) ) ;
#2 = EDGE_CURVE ( 'NONE', #210, #210, #156, .T. ) ;
#3 = DIRECTION ( 'NONE',  ( 0.0000000000000000000, 0.0000000000000000000, 1.000000000000000000 ) ) ;
#4 = DIRECTION ( 'NONE',  ( -3.491481338843133355E-15, 1.224646799147353207E-16, -1.000000000000000000 ) ) ;
#5 = ORIENTED_EDGE ( 'NONE', *, *, #246, .F. ) ;
#6 = AXIS2_PLACEMENT_3D ( 'NONE', #206, #170, #149 ) ;
#7 = CARTESIAN_POINT ( 'NONE',  ( 3.107418391570388560E-13, 1.724723750061120922E-32, 89.00000000000000000 ) ) ;
#8 = ORIENTED_EDGE ( 'NONE', *, *, #224, .F. ) ;
#9 = DIRECTION ( 'NONE',  ( -3.491481338843133355E-15, 1.224646799147353207E-16, -1.000000000000000000 ) ) ;
#10 = AXIS2_PLACEMENT_3D ( 'NONE', #247, #166, #105 ) ;
#11 = CARTESIAN_POINT ( 'NONE',  ( 1.361677722148822135E-13, -1.691355389077386917E-14, 39.00000000000000000 ) ) ;
#12 = EDGE_CURVE ( 'NONE', #23, #23, #88, .T. ) ;
#13 = SECURITY_CLASSIFICATION_LEVEL ( 'unclassified' ) ;
#14 = CC_DESIGN_PERSON_AND_ORGANIZATION_ASSIGNMENT ( #201, #119, ( #244 ) ) ;
#15 = ORIENTED_EDGE ( 'NONE', *, *, #91, .T. ) ;
#16 = SHAPE_DEFINITION_REPRESENTATION ( #103, #112 ) ;
#17 = APPLICATION_PROTOCOL_DEFINITION ( 'international standard', 'config_control_design', 1994, #252 ) ;
#18 = APPROVAL ( #38, 'UNSPECIFIED' ) ;
#19 = PERSON_AND_ORGANIZATION ( #97, #223 ) ;
#20 = CARTESIAN_POINT ( 'NONE',  ( 0.0000000000000000000, 0.0000000000000000000, 0.0000000000000000000 ) ) ;
#21 = VERTEX_POINT ( 'NONE', #128 ) ;
#22 = CIRCLE ( 'NONE', #177, 2.600000000000005862 ) ;
#23 = VERTEX_POINT ( 'NONE', #125 ) ;
#24 = ORIENTED_EDGE ( 'NONE', *, *, #178, .F. ) ;
#25 =( LENGTH_UNIT ( ) NAMED_UNIT ( * ) SI_UNIT ( .MILLI., .METRE. ) );
#26 = ORIENTED_EDGE ( 'NONE', *, *, #224, .T. ) ;
#27 = ORIENTED_EDGE ( 'NONE', *, *, #153, .T. ) ;
#28 = ADVANCED_FACE ( 'NONE', ( #258, #99 ), #134, .T. ) ;
#29 = AXIS2_PLACEMENT_3D ( 'NONE', #158, #114, #93 ) ;
#30 = DIRECTION ( 'NONE',  ( -5.135813185032641787E-31, -1.000000000000000000, -1.445602896647342861E-16 ) ) ;
#31 = FACE_OUTER_BOUND ( 'NONE', #154, .T. ) ;
#32 = APPROVAL_DATE_TIME ( #220, #18 ) ;
#33 = CARTESIAN_POINT ( 'NONE',  ( 3.107418391570388560E-13, -1.089935651241144239E-14, 89.00000000000000000 ) ) ;
#34 = PERSON_AND_ORGANIZATION_ROLE ( 'design_supplier' ) ;
#35 = DIRECTION ( 'NONE',  ( -3.491481338843133355E-15, 1.224646799147353207E-16, -1.000000000000000000 ) ) ;
#36 = APPROVAL_DATE_TIME ( #100, #233 ) ;
#37 = CARTESIAN_POINT ( 'NONE',  ( 1.180120692528978948E-13, 2.249639673992777106E-32, 33.79999999999999716 ) ) ;
#38 = APPROVAL_STATUS ( 'not_yet_approved' ) ;
#39 = CALENDAR_DATE ( 2021, 13, 10 ) ;
#40 = PLANE ( 'NONE',  #188 ) ;
#41 = CC_DESIGN_PERSON_AND_ORGANIZATION_ASSIGNMENT ( #181, #138, ( #253 ) ) ;
#42 = CARTESIAN_POINT ( 'NONE',  ( 3.107418391570388560E-13, 2.299999999999990496, 89.00000000000000000 ) ) ;
#43 = ORIENTED_EDGE ( 'NONE', *, *, #2, .F. ) ;
#44 = CARTESIAN_POINT ( 'NONE',  ( 3.082978022198486311E-13, 2.999999999999991118, 88.29999999999998295 ) ) ;
#45 = EDGE_LOOP ( 'NONE', ( #24 ) ) ;
#46 = CIRCLE ( 'NONE', #10, 2.300000000000001155 ) ;
#47 = ORIENTED_EDGE ( 'NONE', *, *, #178, .T. ) ;
#48 = CIRCLE ( 'NONE', #192, 2.999999999999999112 ) ;
#49 = CARTESIAN_POINT ( 'NONE',  ( 1.379135128843037738E-13, -1.709234043940763596E-14, 39.50000000000000000 ) ) ;
#50 = DESIGN_CONTEXT ( 'detailed design', #252, 'design' ) ;
#51 = DIRECTION ( 'NONE',  ( -3.491481338843133355E-15, 4.327174794786742882E-16, -1.000000000000000000 ) ) ;
#52 = PERSON_AND_ORGANIZATION_ROLE ( 'creator' ) ;
#53 = FACE_OUTER_BOUND ( 'NONE', #78, .T. ) ;
#54 = UNCERTAINTY_MEASURE_WITH_UNIT (LENGTH_MEASURE( 1.000000000000000082E-05 ), #25, 'distance_accuracy_value', 'NONE');
#55 = LOCAL_TIME ( 14, 57, 5.000000000000000000, #141 ) ;
#56 = DIRECTION ( 'NONE',  ( 0.0000000000000000000, 1.000000000000000000, 0.0000000000000000000 ) ) ;
#57 = MANIFOLD_SOLID_BREP ( 'Corps-Déplacer/Copier1[1]', #147 ) ;
#58 = PERSON_AND_ORGANIZATION ( #97, #223 ) ;
#59 = MANIFOLD_SOLID_BREP ( 'Corps-Déplacer/Copier1[2]', #101 ) ;
#60 = CC_DESIGN_APPROVAL ( #18, ( #84 ) ) ;
#61 = ADVANCED_FACE ( 'NONE', ( #120, #239 ), #196, .T. ) ;
#62 = CARTESIAN_POINT ( 'NONE',  ( 1.379135128843037738E-13, 2.733974596215557717, 39.50000000000000000 ) ) ;
#63 = CARTESIAN_POINT ( 'NONE',  ( 1.395222810490354245E-13, -3.000000000000016431, 39.96076951545865086 ) ) ;
#64 = CIRCLE ( 'NONE', #216, 2.600000000000005862 ) ;
#65 = LOCAL_TIME ( 14, 57, 5.000000000000000000, #98 ) ;
#66 = ADVANCED_FACE ( 'NONE', ( #53 ), #256, .T. ) ;
#67 = PLANE ( 'NONE',  #140 ) ;
#68 =( NAMED_UNIT ( * ) PLANE_ANGLE_UNIT ( ) SI_UNIT ( $, .RADIAN. ) );
#69 = EDGE_LOOP ( 'NONE', ( #241 ) ) ;
#70 = EDGE_LOOP ( 'NONE', ( #26 ) ) ;
#71 = AXIS2_PLACEMENT_3D ( 'NONE', #37, #160, #76 ) ;
#72 = APPROVAL_PERSON_ORGANIZATION ( #19, #233, #240 ) ;
#73 = DIRECTION ( 'NONE',  ( 3.491481338843133355E-15, -4.327174794786742882E-16, 1.000000000000000000 ) ) ;
#74 = ADVANCED_FACE ( 'NONE', ( #198 ), #200, .T. ) ;
#75 = LOCAL_TIME ( 14, 57, 5.000000000000000000, #159 ) ;
#76 = DIRECTION ( 'NONE',  ( -4.275831445896958607E-31, -1.000000000000000000, -1.224646799147353207E-16 ) ) ;
#77 = APPROVAL_ROLE ( '' ) ;
#78 = EDGE_LOOP ( 'NONE', ( #232 ) ) ;
#79 = APPROVAL_STATUS ( 'not_yet_approved' ) ;
#80 = ADVANCED_FACE ( 'NONE', ( #123, #102 ), #205, .T. ) ;
#81 = CARTESIAN_POINT ( 'NONE',  ( 3.812385842504467288E-15, -1.337204947137065176E-16, 1.091910702798618571 ) ) ;
#82 = APPROVAL_DATE_TIME ( #263, #163 ) ;
#83 = FACE_BOUND ( 'NONE', #169, .T. ) ;
#84 = PRODUCT_DEFINITION_FORMATION_WITH_SPECIFIED_SOURCE ( 'ANY', '', #229, .NOT_KNOWN. ) ;
#85 = DIRECTION ( 'NONE',  ( 1.000000000000000000, 0.0000000000000000000, 0.0000000000000000000 ) ) ;
#86 = CC_DESIGN_PERSON_AND_ORGANIZATION_ASSIGNMENT ( #234, #185, ( #229 ) ) ;
#87 = VERTEX_POINT ( 'NONE', #249 ) ;
#88 = CIRCLE ( 'NONE', #135, 2.600000000000005862 ) ;
#89 = DIRECTION ( 'NONE',  ( -4.275831445896958607E-31, -1.000000000000000000, -1.224646799147353207E-16 ) ) ;
#90 = DIRECTION ( 'NONE',  ( 3.491481338843133355E-15, -1.224646799147353207E-16, 1.000000000000000000 ) ) ;
#91 = EDGE_CURVE ( 'NONE', #111, #111, #171, .T. ) ;
#92 = DIRECTION ( 'NONE',  ( -3.491481338843133355E-15, 1.224646799147353207E-16, -1.000000000000000000 ) ) ;
#93 = DIRECTION ( 'NONE',  ( 0.0000000000000000000, 1.000000000000000000, 0.0000000000000000000 ) ) ;
#94 = APPROVAL_PERSON_ORGANIZATION ( #238, #18, #262 ) ;
#95 = PERSON_AND_ORGANIZATION ( #97, #223 ) ;
#96 = DIRECTION ( 'NONE',  ( 1.510825004591027679E-30, 1.000000000000000000, 4.327174794786742882E-16 ) ) ;
#97 = PERSON ( 'UNSPECIFIED', 'UNSPECIFIED', 'UNSPECIFIED', ('UNSPECIFIED'), ('UNSPECIFIED'), ('UNSPECIFIED') ) ;
#98 = COORDINATED_UNIVERSAL_TIME_OFFSET ( 1, 0, .AHEAD. ) ;
#99 = FACE_OUTER_BOUND ( 'NONE', #211, .T. ) ;
#100 = DATE_AND_TIME ( #225, #55 ) ;
#101 = CLOSED_SHELL ( 'NONE', ( #66, #61, #74 ) ) ;
#102 = FACE_OUTER_BOUND ( 'NONE', #215, .T. ) ;
#103 = PRODUCT_DEFINITION_SHAPE ( 'NONE', 'NONE',  #253 ) ;
#104 = AXIS2_PLACEMENT_3D ( 'NONE', #20, #9, #137 ) ;
#105 = DIRECTION ( 'NONE',  ( 0.0000000000000000000, 1.000000000000000000, 0.0000000000000000000 ) ) ;
#106 = TOROIDAL_SURFACE ( 'NONE', #176, 3.600000000000012523, 1.000000000000000000 ) ;
#107 = EDGE_CURVE ( 'NONE', #87, #87, #64, .T. ) ;
#108 = MECHANICAL_CONTEXT ( 'NONE', #202, 'mechanical' ) ;
#109 = VERTEX_POINT ( 'NONE', #63 ) ;
#110 = AXIS2_PLACEMENT_3D ( 'NONE', #260, #226, #165 ) ;
#111 = VERTEX_POINT ( 'NONE', #44 ) ;
#112 = ADVANCED_BREP_SHAPE_REPRESENTATION ( '960169', ( #57, #59, #164 ), #199 ) ;
#113 = CC_DESIGN_DATE_AND_TIME_ASSIGNMENT ( #243, #157, ( #253 ) ) ;
#114 = DIRECTION ( 'NONE',  ( -3.491481338843133355E-15, 1.224646799147353207E-16, -1.000000000000000000 ) ) ;
#115 = PRODUCT_RELATED_PRODUCT_CATEGORY ( 'detail', '', ( #229 ) ) ;
#116 = PERSON_AND_ORGANIZATION ( #97, #223 ) ;
#117 = DIRECTION ( 'NONE',  ( -3.491481338843133355E-15, 1.224646799147353207E-16, -1.000000000000000000 ) ) ;
#118 = CC_DESIGN_APPROVAL ( #163, ( #253 ) ) ;
#119 = PERSON_AND_ORGANIZATION_ROLE ( 'classification_officer' ) ;
#120 = FACE_OUTER_BOUND ( 'NONE', #69, .T. ) ;
#121 = DATE_AND_TIME ( #259, #136 ) ;
#122 = CC_DESIGN_PERSON_AND_ORGANIZATION_ASSIGNMENT ( #58, #34, ( #84 ) ) ;
#123 = FACE_OUTER_BOUND ( 'NONE', #127, .T. ) ;
#124 = CARTESIAN_POINT ( 'NONE',  ( 1.180120692528978948E-13, -1.462585080637918905E-14, 33.79999999999999716 ) ) ;
#125 = CARTESIAN_POINT ( 'NONE',  ( 1.180120692528978948E-13, -2.600000000000020517, 33.79999999999999716 ) ) ;
#126 = DIRECTION ( 'NONE',  ( 3.491481338843133355E-15, -4.327174794786742882E-16, 1.000000000000000000 ) ) ;
#127 = EDGE_LOOP ( 'NONE', ( #214 ) ) ;
#128 = CARTESIAN_POINT ( 'NONE',  ( 1.361677722148822135E-13, 2.599999999999994760, 39.00000000000000000 ) ) ;
#129 = EDGE_LOOP ( 'NONE', ( #152 ) ) ;
#130 = CARTESIAN_POINT ( 'NONE',  ( 1.180120692528978948E-13, 2.249639673992777106E-32, 33.79999999999999716 ) ) ;
#131 = ADVANCED_FACE ( 'NONE', ( #83, #174 ), #132, .T. ) ;
#132 = CONICAL_SURFACE ( 'NONE', #194, 3.500000000000015099, 0.5235987755983003700 ) ;
#133 = ADVANCED_FACE ( 'NONE', ( #219, #31 ), #106, .F. ) ;
#134 = CYLINDRICAL_SURFACE ( 'NONE', #110, 2.600000000000005862 ) ;
#135 = AXIS2_PLACEMENT_3D ( 'NONE', #142, #35, #139 ) ;
#136 = LOCAL_TIME ( 14, 57, 5.000000000000000000, #197 ) ;
#137 = DIRECTION ( 'NONE',  ( 4.275831445896958607E-31, 1.000000000000000000, 1.224646799147353207E-16 ) ) ;
#138 = PERSON_AND_ORGANIZATION_ROLE ( 'creator' ) ;
#139 = DIRECTION ( 'NONE',  ( 0.0000000000000000000, -1.000000000000000000, 0.0000000000000000000 ) ) ;
#140 = AXIS2_PLACEMENT_3D ( 'NONE', #7, #4, #146 ) ;
#141 = COORDINATED_UNIVERSAL_TIME_OFFSET ( 1, 0, .AHEAD. ) ;
#142 = CARTESIAN_POINT ( 'NONE',  ( 1.180120692528978948E-13, -1.462585080637918905E-14, 33.79999999999999716 ) ) ;
#143 = CALENDAR_DATE ( 2021, 13, 10 ) ;
#144 = ADVANCED_FACE ( 'NONE', ( #237, #221 ), #248, .T. ) ;
#145 =( NAMED_UNIT ( * ) SI_UNIT ( $, .STERADIAN. ) SOLID_ANGLE_UNIT ( ) );
#146 = DIRECTION ( 'NONE',  ( 4.275831445896958607E-31, 1.000000000000000000, 1.224646799147353207E-16 ) ) ;
#147 = CLOSED_SHELL ( 'NONE', ( #80, #144, #150, #28, #131, #133, #183 ) ) ;
#148 = APPLICATION_PROTOCOL_DEFINITION ( 'international standard', 'config_control_design', 1994, #202 ) ;
#149 = DIRECTION ( 'NONE',  ( 0.0000000000000000000, 1.000000000000000000, 0.0000000000000000000 ) ) ;
#150 = ADVANCED_FACE ( 'NONE', ( #193 ), #67, .F. ) ;
#151 = ORIENTED_EDGE ( 'NONE', *, *, #153, .F. ) ;
#152 = ORIENTED_EDGE ( 'NONE', *, *, #91, .F. ) ;
#153 = EDGE_CURVE ( 'NONE', #245, #245, #22, .T. ) ;
#154 = EDGE_LOOP ( 'NONE', ( #173 ) ) ;
#155 = DIRECTION ( 'NONE',  ( 0.0000000000000000000, -1.000000000000000000, 0.0000000000000000000 ) ) ;
#156 = CIRCLE ( 'NONE', #203, 2.733974596215574593 ) ;
#157 = DATE_TIME_ROLE ( 'creation_date' ) ;
#158 = CARTESIAN_POINT ( 'NONE',  ( 3.082978022198486311E-13, -1.081363123647112810E-14, 88.29999999999998295 ) ) ;
#159 = COORDINATED_UNIVERSAL_TIME_OFFSET ( 1, 0, .AHEAD. ) ;
#160 = DIRECTION ( 'NONE',  ( 3.491481338843133355E-15, -1.224646799147353207E-16, 1.000000000000000000 ) ) ;
#161 = AXIS2_PLACEMENT_3D ( 'NONE', #1, #195, #236 ) ;
#162 = APPROVAL_STATUS ( 'not_yet_approved' ) ;
#163 = APPROVAL ( #162, 'UNSPECIFIED' ) ;
#164 = AXIS2_PLACEMENT_3D ( 'NONE', #167, #3, #85 ) ;
#165 = DIRECTION ( 'NONE',  ( 1.510825004591028030E-30, 1.000000000000000000, 4.327174794786742882E-16 ) ) ;
#166 = DIRECTION ( 'NONE',  ( -3.491481338843133355E-15, 1.224646799147353207E-16, -1.000000000000000000 ) ) ;
#167 = CARTESIAN_POINT ( 'NONE',  ( 0.0000000000000000000, 0.0000000000000000000, 0.0000000000000000000 ) ) ;
#168 = VERTEX_POINT ( 'NONE', #42 ) ;
#169 = EDGE_LOOP ( 'NONE', ( #43 ) ) ;
#170 = DIRECTION ( 'NONE',  ( -3.491481338843133355E-15, 4.327174794786742882E-16, -1.000000000000000000 ) ) ;
#171 = CIRCLE ( 'NONE', #29, 3.000000000000001776 ) ;
#172 = CIRCLE ( 'NONE', #6, 2.600000000000011635 ) ;
#173 = ORIENTED_EDGE ( 'NONE', *, *, #2, .T. ) ;
#174 = FACE_OUTER_BOUND ( 'NONE', #250, .T. ) ;
#175 = EDGE_LOOP ( 'NONE', ( #209 ) ) ;
#176 = AXIS2_PLACEMENT_3D ( 'NONE', #11, #51, #96 ) ;
#177 = AXIS2_PLACEMENT_3D ( 'NONE', #124, #189, #191 ) ;
#178 = EDGE_CURVE ( 'NONE', #168, #168, #46, .T. ) ;
#179 = CALENDAR_DATE ( 2021, 13, 10 ) ;
#180 = DIRECTION ( 'NONE',  ( 0.0000000000000000000, 1.000000000000000000, 0.0000000000000000000 ) ) ;
#181 = PERSON_AND_ORGANIZATION ( #97, #223 ) ;
#182 = DIRECTION ( 'NONE',  ( -3.491481338843133355E-15, 4.327174794786742882E-16, -1.000000000000000000 ) ) ;
#183 = ADVANCED_FACE ( 'NONE', ( #228 ), #40, .F. ) ;
#184 = COORDINATED_UNIVERSAL_TIME_OFFSET ( 1, 0, .AHEAD. ) ;
#185 = PERSON_AND_ORGANIZATION_ROLE ( 'design_owner' ) ;
#186 = DIRECTION ( 'NONE',  ( -4.444453717816688354E-31, -1.000000000000000000, -1.251002506714040828E-16 ) ) ;
#187 = AXIS2_PLACEMENT_3D ( 'NONE', #81, #217, #30 ) ;
#188 = AXIS2_PLACEMENT_3D ( 'NONE', #130, #90, #89 ) ;
#189 = DIRECTION ( 'NONE',  ( -3.491481338843133355E-15, 1.224646799147353207E-16, -1.000000000000000000 ) ) ;
#190 = EDGE_LOOP ( 'NONE', ( #27 ) ) ;
#191 = DIRECTION ( 'NONE',  ( 0.0000000000000000000, -1.000000000000000000, 0.0000000000000000000 ) ) ;
#192 = AXIS2_PLACEMENT_3D ( 'NONE', #230, #126, #208 ) ;
#193 = FACE_OUTER_BOUND ( 'NONE', #45, .T. ) ;
#194 = AXIS2_PLACEMENT_3D ( 'NONE', #255, #73, #155 ) ;
#195 = DIRECTION ( 'NONE',  ( -3.491481338843133355E-15, 4.327174794786742882E-16, -1.000000000000000000 ) ) ;
#196 = CYLINDRICAL_SURFACE ( 'NONE', #161, 2.600000000000005862 ) ;
#197 = COORDINATED_UNIVERSAL_TIME_OFFSET ( 1, 0, .AHEAD. ) ;
#198 = FACE_OUTER_BOUND ( 'NONE', #175, .T. ) ;
#199 =( GEOMETRIC_REPRESENTATION_CONTEXT ( 3 ) GLOBAL_UNCERTAINTY_ASSIGNED_CONTEXT ( ( #54 ) ) GLOBAL_UNIT_ASSIGNED_CONTEXT ( ( #25, #68, #145 ) ) REPRESENTATION_CONTEXT ( 'NONE', 'WORKASPACE' ) );
#200 = PLANE ( 'NONE',  #71 ) ;
#201 = PERSON_AND_ORGANIZATION ( #97, #223 ) ;
#202 = APPLICATION_CONTEXT ( 'configuration controlled 3d designs of mechanical parts and assemblies' ) ;
#203 = AXIS2_PLACEMENT_3D ( 'NONE', #49, #182, #56 ) ;
#204 = LOCAL_TIME ( 14, 57, 5.000000000000000000, #184 ) ;
#205 = CYLINDRICAL_SURFACE ( 'NONE', #104, 2.999999999999999112 ) ;
#206 = CARTESIAN_POINT ( 'NONE',  ( 1.361677722148822135E-13, -1.687598169966829724E-14, 39.00000000000000000 ) ) ;
#207 = CC_DESIGN_APPROVAL ( #233, ( #244 ) ) ;
#208 = DIRECTION ( 'NONE',  ( 0.0000000000000000000, -1.000000000000000000, 0.0000000000000000000 ) ) ;
#209 = ORIENTED_EDGE ( 'NONE', *, *, #12, .F. ) ;
#210 = VERTEX_POINT ( 'NONE', #62 ) ;
#211 = EDGE_LOOP ( 'NONE', ( #151 ) ) ;
#212 = APPROVAL_PERSON_ORGANIZATION ( #95, #163, #77 ) ;
#213 = CARTESIAN_POINT ( 'NONE',  ( 1.180120692528978948E-13, -2.600000000000020517, 33.79999999999999716 ) ) ;
#214 = ORIENTED_EDGE ( 'NONE', *, *, #246, .T. ) ;
#215 = EDGE_LOOP ( 'NONE', ( #15 ) ) ;
#216 = AXIS2_PLACEMENT_3D ( 'NONE', #257, #92, #186 ) ;
#217 = DIRECTION ( 'NONE',  ( 3.491481338843133355E-15, -1.224646799147353207E-16, 1.000000000000000000 ) ) ;
#218 = CC_DESIGN_PERSON_AND_ORGANIZATION_ASSIGNMENT ( #116, #52, ( #84 ) ) ;
#219 = FACE_OUTER_BOUND ( 'NONE', #222, .T. ) ;
#220 = DATE_AND_TIME ( #39, #65 ) ;
#221 = FACE_BOUND ( 'NONE', #231, .T. ) ;
#222 = EDGE_LOOP ( 'NONE', ( #8 ) ) ;
#223 = ORGANIZATION ( 'UNSPECIFIED', 'UNSPECIFIED', '' ) ;
#224 = EDGE_CURVE ( 'NONE', #21, #21, #172, .T. ) ;
#225 = CALENDAR_DATE ( 2021, 13, 10 ) ;
#226 = DIRECTION ( 'NONE',  ( -3.491481338843133355E-15, 4.327174794786742882E-16, -1.000000000000000000 ) ) ;
#227 = DATE_TIME_ROLE ( 'classification_date' ) ;
#228 = FACE_OUTER_BOUND ( 'NONE', #190, .T. ) ;
#229 = PRODUCT ( '960169', '960169', '', ( #108 ) ) ;
#230 = CARTESIAN_POINT ( 'NONE',  ( 1.395222810490354245E-13, -1.729172346275751087E-14, 39.96076951545865086 ) ) ;
#231 = EDGE_LOOP ( 'NONE', ( #47 ) ) ;
#232 = ORIENTED_EDGE ( 'NONE', *, *, #107, .T. ) ;
#233 = APPROVAL ( #79, 'UNSPECIFIED' ) ;
#234 = PERSON_AND_ORGANIZATION ( #97, #223 ) ;
#235 = EDGE_LOOP ( 'NONE', ( #254 ) ) ;
#236 = DIRECTION ( 'NONE',  ( 1.510825004591028030E-30, 1.000000000000000000, 4.327174794786742882E-16 ) ) ;
#237 = FACE_OUTER_BOUND ( 'NONE', #129, .T. ) ;
#238 = PERSON_AND_ORGANIZATION ( #97, #223 ) ;
#239 = FACE_OUTER_BOUND ( 'NONE', #235, .T. ) ;
#240 = APPROVAL_ROLE ( '' ) ;
#241 = ORIENTED_EDGE ( 'NONE', *, *, #12, .T. ) ;
#242 = CC_DESIGN_SECURITY_CLASSIFICATION ( #244, ( #84 ) ) ;
#243 = DATE_AND_TIME ( #143, #204 ) ;
#244 = SECURITY_CLASSIFICATION ( '', '', #13 ) ;
#245 = VERTEX_POINT ( 'NONE', #213 ) ;
#246 = EDGE_CURVE ( 'NONE', #109, #109, #48, .T. ) ;
#247 = CARTESIAN_POINT ( 'NONE',  ( 3.107418391570388560E-13, -1.089935651241144239E-14, 89.00000000000000000 ) ) ;
#248 = CONICAL_SURFACE ( 'NONE', #251, 2.300000000000001155, 0.7853981633974442822 ) ;
#249 = CARTESIAN_POINT ( 'NONE',  ( 3.304067730170553778E-15, -2.600000000000005862, 0.9463226090921403877 ) ) ;
#250 = EDGE_LOOP ( 'NONE', ( #5 ) ) ;
#251 = AXIS2_PLACEMENT_3D ( 'NONE', #33, #117, #180 ) ;
#252 = APPLICATION_CONTEXT ( 'configuration controlled 3d designs of mechanical parts and assemblies' ) ;
#253 = PRODUCT_DEFINITION ( 'UNKNOWN', '', #84, #50 ) ;
#254 = ORIENTED_EDGE ( 'NONE', *, *, #107, .F. ) ;
#255 = CARTESIAN_POINT ( 'NONE',  ( 1.425459925853129541E-13, -1.766646779264762438E-14, 40.82679491924311321 ) ) ;
#256 = CONICAL_SURFACE ( 'NONE', #187, 2.999999999999992450, 1.221730476396026610 ) ;
#257 = CARTESIAN_POINT ( 'NONE',  ( 3.304067730170554567E-15, -1.158910954185462222E-16, 0.9463226090921407208 ) ) ;
#258 = FACE_OUTER_BOUND ( 'NONE', #70, .T. ) ;
#259 = CALENDAR_DATE ( 2021, 13, 10 ) ;
#260 = CARTESIAN_POINT ( 'NONE',  ( 0.0000000000000000000, 0.0000000000000000000, 0.0000000000000000000 ) ) ;
#261 = CC_DESIGN_DATE_AND_TIME_ASSIGNMENT ( #121, #227, ( #244 ) ) ;
#262 = APPROVAL_ROLE ( '' ) ;
#263 = DATE_AND_TIME ( #179, #75 ) ;
ENDSEC;
END-ISO-10303-21;
