ISO-10303-21;
HEADER;
FILE_DESCRIPTION (( 'STEP AP203' ),
    '1' );
FILE_NAME ('960167.step',
    '2021-10-13T12:57:04',
    ( '' ),
    ( '' ),
    'SwSTEP 2.0',
    'SolidWorks 2019',
    '' );
FILE_SCHEMA (( 'CONFIG_CONTROL_DESIGN' ));
ENDSEC;

DATA;
#1 = FACE_OUTER_BOUND ( 'NONE', #234, .T. ) ;
#2 = AXIS2_PLACEMENT_3D ( 'NONE', #86, #142, #140 ) ;
#3 = CARTESIAN_POINT ( 'NONE',  ( 1.159171804495920274E-13, -1.436622031869198826E-14, 33.20000000000000284 ) ) ;
#4 = EDGE_LOOP ( 'NONE', ( #135 ) ) ;
#5 = CARTESIAN_POINT ( 'NONE',  ( 0.0000000000000000000, 0.0000000000000000000, 0.0000000000000000000 ) ) ;
#6 = FACE_OUTER_BOUND ( 'NONE', #157, .T. ) ;
#7 = CARTESIAN_POINT ( 'NONE',  ( 1.159171804495920274E-13, -2.550000000000020250, 33.20000000000000284 ) ) ;
#8 = EDGE_CURVE ( 'NONE', #254, #254, #143, .T. ) ;
#9 = CARTESIAN_POINT ( 'NONE',  ( 3.240527966128812815E-15, -1.136624205066511082E-16, 0.9281240973788302817 ) ) ;
#10 = CARTESIAN_POINT ( 'NONE',  ( 1.373806152654729879E-13, -1.702629566011144927E-14, 39.34737205583709141 ) ) ;
#11 = CIRCLE ( 'NONE', #131, 2.999999999999998668 ) ;
#12 = ADVANCED_FACE ( 'NONE', ( #62 ), #137, .T. ) ;
#13 = DATE_AND_TIME ( #95, #58 ) ;
#14 = PERSON_AND_ORGANIZATION ( #49, #184 ) ;
#15 = DESIGN_CONTEXT ( 'detailed design', #219, 'design' ) ;
#16 = ADVANCED_FACE ( 'NONE', ( #144 ), #26, .F. ) ;
#17 = AXIS2_PLACEMENT_3D ( 'NONE', #161, #238, #118 ) ;
#18 = DATE_AND_TIME ( #196, #66 ) ;
#19 = EDGE_LOOP ( 'NONE', ( #261 ) ) ;
#20 = CIRCLE ( 'NONE', #162, 2.300000000000001155 ) ;
#21 = DIRECTION ( 'NONE',  ( 3.491481338843133355E-15, -4.327174794786742882E-16, 1.000000000000000000 ) ) ;
#22 = CARTESIAN_POINT ( 'NONE',  ( 3.082978022198486311E-13, -1.081363123647112810E-14, 88.29999999999998295 ) ) ;
#23 = CALENDAR_DATE ( 2021, 13, 10 ) ;
#24 = DIRECTION ( 'NONE',  ( -4.275831445896958607E-31, -1.000000000000000000, -1.224646799147353207E-16 ) ) ;
#25 = CC_DESIGN_APPROVAL ( #132, ( #218 ) ) ;
#26 = PLANE ( 'NONE',  #213 ) ;
#27 = DIRECTION ( 'NONE',  ( 3.491481338843133355E-15, -1.224646799147353207E-16, 1.000000000000000000 ) ) ;
#28 = CARTESIAN_POINT ( 'NONE',  ( 0.0000000000000000000, 0.0000000000000000000, 0.0000000000000000000 ) ) ;
#29 = AXIS2_PLACEMENT_3D ( 'NONE', #200, #21, #80 ) ;
#30 = DIRECTION ( 'NONE',  ( 0.0000000000000000000, 1.000000000000000000, 0.0000000000000000000 ) ) ;
#31 = PRODUCT ( '960167', '960167', '', ( #127 ) ) ;
#32 =( LENGTH_UNIT ( ) NAMED_UNIT ( * ) SI_UNIT ( .MILLI., .METRE. ) );
#33 = AXIS2_PLACEMENT_3D ( 'NONE', #3, #225, #43 ) ;
#34 = DATE_TIME_ROLE ( 'classification_date' ) ;
#35 = CALENDAR_DATE ( 2021, 13, 10 ) ;
#36 = ORIENTED_EDGE ( 'NONE', *, *, #226, .T. ) ;
#37 = ORIENTED_EDGE ( 'NONE', *, *, #8, .T. ) ;
#38 = PERSON_AND_ORGANIZATION_ROLE ( 'classification_officer' ) ;
#39 = ORIENTED_EDGE ( 'NONE', *, *, #104, .F. ) ;
#40 = TOROIDAL_SURFACE ( 'NONE', #83, 3.550000000000012257, 1.000000000000001332 ) ;
#41 = DIRECTION ( 'NONE',  ( 0.0000000000000000000, 1.000000000000000000, 0.0000000000000000000 ) ) ;
#42 = ADVANCED_FACE ( 'NONE', ( #1 ), #96, .T. ) ;
#43 = DIRECTION ( 'NONE',  ( 0.0000000000000000000, -1.000000000000000000, 0.0000000000000000000 ) ) ;
#44 = AXIS2_PLACEMENT_3D ( 'NONE', #28, #106, #187 ) ;
#45 = CARTESIAN_POINT ( 'NONE',  ( 1.159171804495920274E-13, 2.249639673992777380E-32, 33.20000000000000284 ) ) ;
#46 = FACE_BOUND ( 'NONE', #223, .T. ) ;
#47 = EDGE_CURVE ( 'NONE', #91, #91, #130, .T. ) ;
#48 = CARTESIAN_POINT ( 'NONE',  ( 3.107418391570388560E-13, 1.724723750061120922E-32, 89.00000000000000000 ) ) ;
#49 = PERSON ( 'UNSPECIFIED', 'UNSPECIFIED', 'UNSPECIFIED', ('UNSPECIFIED'), ('UNSPECIFIED'), ('UNSPECIFIED') ) ;
#50 = PLANE ( 'NONE',  #248 ) ;
#51 = DIRECTION ( 'NONE',  ( 4.275831445896958607E-31, 1.000000000000000000, 1.224646799147353207E-16 ) ) ;
#52 = CIRCLE ( 'NONE', #239, 2.550000000000011813 ) ;
#53 = COORDINATED_UNIVERSAL_TIME_OFFSET ( 1, 0, .AHEAD. ) ;
#54 = ADVANCED_FACE ( 'NONE', ( #105, #224 ), #61, .T. ) ;
#55 = APPROVAL_DATE_TIME ( #119, #177 ) ;
#56 = ORIENTED_EDGE ( 'NONE', *, *, #179, .F. ) ;
#57 = APPLICATION_PROTOCOL_DEFINITION ( 'international standard', 'config_control_design', 1994, #219 ) ;
#58 = LOCAL_TIME ( 14, 57, 4.000000000000000000, #76 ) ;
#59 = PERSON_AND_ORGANIZATION_ROLE ( 'creator' ) ;
#60 = FACE_OUTER_BOUND ( 'NONE', #166, .T. ) ;
#61 = CONICAL_SURFACE ( 'NONE', #195, 2.300000000000001155, 0.7853981633974442822 ) ;
#62 = FACE_OUTER_BOUND ( 'NONE', #172, .T. ) ;
#63 = DIRECTION ( 'NONE',  ( -3.491481338843133355E-15, 1.224646799147353207E-16, -1.000000000000000000 ) ) ;
#64 = DIRECTION ( 'NONE',  ( -4.275831445896958607E-31, -1.000000000000000000, -1.224646799147353207E-16 ) ) ;
#65 = AXIS2_PLACEMENT_3D ( 'NONE', #45, #27, #24 ) ;
#66 = LOCAL_TIME ( 14, 57, 4.000000000000000000, #77 ) ;
#67 = CARTESIAN_POINT ( 'NONE',  ( 1.337237352776919886E-13, -1.657307946403322177E-14, 38.29999999999999716 ) ) ;
#68 = ADVANCED_FACE ( 'NONE', ( #165, #102 ), #240, .T. ) ;
#69 = DIRECTION ( 'NONE',  ( -3.491481338843133355E-15, 1.224646799147353207E-16, -1.000000000000000000 ) ) ;
#70 = DIRECTION ( 'NONE',  ( -4.531599869146426895E-31, -1.000000000000000000, -1.275531967630002287E-16 ) ) ;
#71 = CC_DESIGN_APPROVAL ( #177, ( #159 ) ) ;
#72 = UNCERTAINTY_MEASURE_WITH_UNIT (LENGTH_MEASURE( 1.000000000000000082E-05 ), #32, 'distance_accuracy_value', 'NONE');
#73 = CARTESIAN_POINT ( 'NONE',  ( 3.107418391570388560E-13, -1.089935651241144239E-14, 89.00000000000000000 ) ) ;
#74 = VERTEX_POINT ( 'NONE', #149 ) ;
#75 = MANIFOLD_SOLID_BREP ( 'Corps-Déplacer/Copier1[2]', #79 ) ;
#76 = COORDINATED_UNIVERSAL_TIME_OFFSET ( 1, 0, .AHEAD. ) ;
#77 = COORDINATED_UNIVERSAL_TIME_OFFSET ( 1, 0, .AHEAD. ) ;
#78 = CC_DESIGN_SECURITY_CLASSIFICATION ( #199, ( #218 ) ) ;
#79 = CLOSED_SHELL ( 'NONE', ( #42, #100, #12 ) ) ;
#80 = DIRECTION ( 'NONE',  ( 0.0000000000000000000, -1.000000000000000000, 0.0000000000000000000 ) ) ;
#81 = CYLINDRICAL_SURFACE ( 'NONE', #17, 2.550000000000006040 ) ;
#82 = EDGE_CURVE ( 'NONE', #74, #74, #52, .T. ) ;
#83 = AXIS2_PLACEMENT_3D ( 'NONE', #249, #190, #123 ) ;
#84 = PERSON_AND_ORGANIZATION ( #49, #184 ) ;
#85 = FACE_OUTER_BOUND ( 'NONE', #176, .T. ) ;
#86 = CARTESIAN_POINT ( 'NONE',  ( 3.812385842504467288E-15, -1.337204947137065176E-16, 1.091910702798618571 ) ) ;
#87 = DIRECTION ( 'NONE',  ( -3.491481338843133355E-15, 1.224646799147353207E-16, -1.000000000000000000 ) ) ;
#88 = APPROVAL_PERSON_ORGANIZATION ( #173, #139, #171 ) ;
#89 = VERTEX_POINT ( 'NONE', #150 ) ;
#90 = ADVANCED_FACE ( 'NONE', ( #46, #60 ), #230, .T. ) ;
#91 = VERTEX_POINT ( 'NONE', #7 ) ;
#92 = DIRECTION ( 'NONE',  ( 0.0000000000000000000, 1.000000000000000000, 0.0000000000000000000 ) ) ;
#93 = CARTESIAN_POINT ( 'NONE',  ( 1.354694759471135489E-13, 2.683974596215555675, 38.79999999999999716 ) ) ;
#94 = PERSON_AND_ORGANIZATION ( #49, #184 ) ;
#95 = CALENDAR_DATE ( 2021, 13, 10 ) ;
#96 = CONICAL_SURFACE ( 'NONE', #2, 2.999999999999992450, 1.221730476396026610 ) ;
#97 = ORIENTED_EDGE ( 'NONE', *, *, #256, .T. ) ;
#98 = CYLINDRICAL_SURFACE ( 'NONE', #170, 2.550000000000006040 ) ;
#99 = DIRECTION ( 'NONE',  ( 0.0000000000000000000, 1.000000000000000000, 0.0000000000000000000 ) ) ;
#100 = ADVANCED_FACE ( 'NONE', ( #183, #85 ), #98, .T. ) ;
#101 = APPROVAL_ROLE ( '' ) ;
#102 = FACE_OUTER_BOUND ( 'NONE', #19, .T. ) ;
#103 = EDGE_LOOP ( 'NONE', ( #221 ) ) ;
#104 = EDGE_CURVE ( 'NONE', #89, #89, #124, .T. ) ;
#105 = FACE_OUTER_BOUND ( 'NONE', #115, .T. ) ;
#106 = DIRECTION ( 'NONE',  ( 0.0000000000000000000, 0.0000000000000000000, 1.000000000000000000 ) ) ;
#107 = PERSON_AND_ORGANIZATION ( #49, #184 ) ;
#108 = DIRECTION ( 'NONE',  ( 3.491481338843133355E-15, -4.327174794786742882E-16, 1.000000000000000000 ) ) ;
#109 = CLOSED_SHELL ( 'NONE', ( #68, #54, #129, #125, #90, #145, #16 ) ) ;
#110 = AXIS2_PLACEMENT_3D ( 'NONE', #9, #69, #70 ) ;
#111 = COORDINATED_UNIVERSAL_TIME_OFFSET ( 1, 0, .AHEAD. ) ;
#112 = ORIENTED_EDGE ( 'NONE', *, *, #82, .F. ) ;
#113 = PERSON_AND_ORGANIZATION ( #49, #184 ) ;
#114 = AXIS2_PLACEMENT_3D ( 'NONE', #22, #63, #41 ) ;
#115 = EDGE_LOOP ( 'NONE', ( #39 ) ) ;
#116 = EDGE_LOOP ( 'NONE', ( #237 ) ) ;
#117 = CC_DESIGN_APPROVAL ( #139, ( #199 ) ) ;
#118 = DIRECTION ( 'NONE',  ( 1.510825004591027855E-30, 1.000000000000000000, 4.327174794786742882E-16 ) ) ;
#119 = DATE_AND_TIME ( #23, #168 ) ;
#120 = DIRECTION ( 'NONE',  ( 3.491481338843133355E-15, -1.224646799147353207E-16, 1.000000000000000000 ) ) ;
#121 = AXIS2_PLACEMENT_3D ( 'NONE', #5, #246, #141 ) ;
#122 = CARTESIAN_POINT ( 'NONE',  ( 1.159171804495920274E-13, 2.249639673992777380E-32, 33.20000000000000284 ) ) ;
#123 = DIRECTION ( 'NONE',  ( 1.510825004591027855E-30, 1.000000000000000000, 4.327174794786742389E-16 ) ) ;
#124 = CIRCLE ( 'NONE', #114, 3.000000000000001776 ) ;
#125 = ADVANCED_FACE ( 'NONE', ( #263, #160 ), #81, .T. ) ;
#126 = CARTESIAN_POINT ( 'NONE',  ( 1.354694759471135489E-13, -1.678943820377256049E-14, 38.79999999999999716 ) ) ;
#127 = MECHANICAL_CONTEXT ( 'NONE', #164, 'mechanical' ) ;
#128 =( NAMED_UNIT ( * ) PLANE_ANGLE_UNIT ( ) SI_UNIT ( $, .RADIAN. ) );
#129 = ADVANCED_FACE ( 'NONE', ( #201 ), #50, .F. ) ;
#130 = CIRCLE ( 'NONE', #253, 2.550000000000006040 ) ;
#131 = AXIS2_PLACEMENT_3D ( 'NONE', #10, #108, #189 ) ;
#132 = APPROVAL ( #155, 'UNSPECIFIED' ) ;
#133 = PERSON_AND_ORGANIZATION ( #49, #184 ) ;
#134 = APPROVAL_PERSON_ORGANIZATION ( #94, #132, #101 ) ;
#135 = ORIENTED_EDGE ( 'NONE', *, *, #206, .T. ) ;
#136 = EDGE_LOOP ( 'NONE', ( #198 ) ) ;
#137 = PLANE ( 'NONE',  #65 ) ;
#138 = LOCAL_TIME ( 14, 57, 4.000000000000000000, #53 ) ;
#139 = APPROVAL ( #260, 'UNSPECIFIED' ) ;
#140 = DIRECTION ( 'NONE',  ( -5.135813185032641787E-31, -1.000000000000000000, -1.445602896647342861E-16 ) ) ;
#141 = DIRECTION ( 'NONE',  ( 4.275831445896958607E-31, 1.000000000000000000, 1.224646799147353454E-16 ) ) ;
#142 = DIRECTION ( 'NONE',  ( 3.491481338843133355E-15, -1.224646799147353207E-16, 1.000000000000000000 ) ) ;
#143 = CIRCLE ( 'NONE', #33, 2.550000000000006040 ) ;
#144 = FACE_OUTER_BOUND ( 'NONE', #220, .T. ) ;
#145 = ADVANCED_FACE ( 'NONE', ( #6, #146 ), #40, .F. ) ;
#146 = FACE_OUTER_BOUND ( 'NONE', #4, .T. ) ;
#147 = AXIS2_PLACEMENT_3D ( 'NONE', #126, #210, #30 ) ;
#148 = CC_DESIGN_PERSON_AND_ORGANIZATION_ASSIGNMENT ( #152, #38, ( #199 ) ) ;
#149 = CARTESIAN_POINT ( 'NONE',  ( 1.337237352776919886E-13, 2.549999999999995381, 38.29999999999999716 ) ) ;
#150 = CARTESIAN_POINT ( 'NONE',  ( 3.082978022198486311E-13, 2.999999999999991118, 88.29999999999998295 ) ) ;
#151 = CC_DESIGN_DATE_AND_TIME_ASSIGNMENT ( #202, #163, ( #159 ) ) ;
#152 = PERSON_AND_ORGANIZATION ( #49, #184 ) ;
#153 = COORDINATED_UNIVERSAL_TIME_OFFSET ( 1, 0, .AHEAD. ) ;
#154 = ORIENTED_EDGE ( 'NONE', *, *, #206, .F. ) ;
#155 = APPROVAL_STATUS ( 'not_yet_approved' ) ;
#156 = CIRCLE ( 'NONE', #147, 2.683974596215572550 ) ;
#157 = EDGE_LOOP ( 'NONE', ( #112 ) ) ;
#158 = ORIENTED_EDGE ( 'NONE', *, *, #256, .F. ) ;
#159 = PRODUCT_DEFINITION ( 'UNKNOWN', '', #218, #15 ) ;
#160 = FACE_OUTER_BOUND ( 'NONE', #136, .T. ) ;
#161 = CARTESIAN_POINT ( 'NONE',  ( 0.0000000000000000000, 0.0000000000000000000, 0.0000000000000000000 ) ) ;
#162 = AXIS2_PLACEMENT_3D ( 'NONE', #73, #191, #92 ) ;
#163 = DATE_TIME_ROLE ( 'creation_date' ) ;
#164 = APPLICATION_CONTEXT ( 'configuration controlled 3d designs of mechanical parts and assemblies' ) ;
#165 = FACE_OUTER_BOUND ( 'NONE', #103, .T. ) ;
#166 = EDGE_LOOP ( 'NONE', ( #56 ) ) ;
#167 = DIRECTION ( 'NONE',  ( 0.0000000000000000000, 1.000000000000000000, 0.0000000000000000000 ) ) ;
#168 = LOCAL_TIME ( 14, 57, 4.000000000000000000, #111 ) ;
#169 = VERTEX_POINT ( 'NONE', #207 ) ;
#170 = AXIS2_PLACEMENT_3D ( 'NONE', #222, #243, #180 ) ;
#171 = APPROVAL_ROLE ( '' ) ;
#172 = EDGE_LOOP ( 'NONE', ( #185 ) ) ;
#173 = PERSON_AND_ORGANIZATION ( #49, #184 ) ;
#174 = ORIENTED_EDGE ( 'NONE', *, *, #47, .T. ) ;
#175 = PERSON_AND_ORGANIZATION_ROLE ( 'design_owner' ) ;
#176 = EDGE_LOOP ( 'NONE', ( #197 ) ) ;
#177 = APPROVAL ( #216, 'UNSPECIFIED' ) ;
#178 = SHAPE_DEFINITION_REPRESENTATION ( #245, #181 ) ;
#179 = EDGE_CURVE ( 'NONE', #211, #211, #11, .T. ) ;
#180 = DIRECTION ( 'NONE',  ( 1.510825004591027855E-30, 1.000000000000000000, 4.327174794786742882E-16 ) ) ;
#181 = ADVANCED_BREP_SHAPE_REPRESENTATION ( '960167', ( #242, #75, #44 ), #262 ) ;
#182 = APPROVAL_DATE_TIME ( #18, #139 ) ;
#183 = FACE_OUTER_BOUND ( 'NONE', #244, .T. ) ;
#184 = ORGANIZATION ( 'UNSPECIFIED', 'UNSPECIFIED', '' ) ;
#185 = ORIENTED_EDGE ( 'NONE', *, *, #8, .F. ) ;
#186 = CARTESIAN_POINT ( 'NONE',  ( 3.107418391570388560E-13, -1.089935651241144239E-14, 89.00000000000000000 ) ) ;
#187 = DIRECTION ( 'NONE',  ( 1.000000000000000000, 0.0000000000000000000, 0.0000000000000000000 ) ) ;
#188 = APPROVAL_PERSON_ORGANIZATION ( #84, #177, #193 ) ;
#189 = DIRECTION ( 'NONE',  ( 0.0000000000000000000, -1.000000000000000000, 0.0000000000000000000 ) ) ;
#190 = DIRECTION ( 'NONE',  ( -3.491481338843133355E-15, 4.327174794786742882E-16, -1.000000000000000000 ) ) ;
#191 = DIRECTION ( 'NONE',  ( -3.491481338843133355E-15, 1.224646799147353207E-16, -1.000000000000000000 ) ) ;
#192 = LOCAL_TIME ( 14, 57, 4.000000000000000000, #153 ) ;
#193 = APPROVAL_ROLE ( '' ) ;
#194 = SECURITY_CLASSIFICATION_LEVEL ( 'unclassified' ) ;
#195 = AXIS2_PLACEMENT_3D ( 'NONE', #186, #87, #167 ) ;
#196 = CALENDAR_DATE ( 2021, 13, 10 ) ;
#197 = ORIENTED_EDGE ( 'NONE', *, *, #226, .F. ) ;
#198 = ORIENTED_EDGE ( 'NONE', *, *, #47, .F. ) ;
#199 = SECURITY_CLASSIFICATION ( '', '', #194 ) ;
#200 = CARTESIAN_POINT ( 'NONE',  ( 1.404043268017505175E-13, -1.740103999000156278E-14, 40.21339745962155376 ) ) ;
#201 = FACE_OUTER_BOUND ( 'NONE', #258, .T. ) ;
#202 = DATE_AND_TIME ( #236, #138 ) ;
#203 = DIRECTION ( 'NONE',  ( 0.0000000000000000000, -1.000000000000000000, 0.0000000000000000000 ) ) ;
#204 = DIRECTION ( 'NONE',  ( -3.491481338843133355E-15, 1.224646799147353207E-16, -1.000000000000000000 ) ) ;
#205 = CARTESIAN_POINT ( 'NONE',  ( 1.159171804495920274E-13, -1.436622031869198826E-14, 33.20000000000000284 ) ) ;
#206 = EDGE_CURVE ( 'NONE', #228, #228, #156, .T. ) ;
#207 = CARTESIAN_POINT ( 'NONE',  ( 3.240527966128812026E-15, -2.550000000000006040, 0.9281240973788299486 ) ) ;
#208 = CC_DESIGN_DATE_AND_TIME_ASSIGNMENT ( #13, #34, ( #199 ) ) ;
#209 = CIRCLE ( 'NONE', #110, 2.550000000000006040 ) ;
#210 = DIRECTION ( 'NONE',  ( -3.491481338843133355E-15, 4.327174794786742882E-16, -1.000000000000000000 ) ) ;
#211 = VERTEX_POINT ( 'NONE', #250 ) ;
#212 = CARTESIAN_POINT ( 'NONE',  ( 3.107418391570388560E-13, 2.299999999999990496, 89.00000000000000000 ) ) ;
#213 = AXIS2_PLACEMENT_3D ( 'NONE', #122, #120, #64 ) ;
#214 = APPROVAL_DATE_TIME ( #257, #132 ) ;
#215 = PERSON_AND_ORGANIZATION_ROLE ( 'design_supplier' ) ;
#216 = APPROVAL_STATUS ( 'not_yet_approved' ) ;
#217 = EDGE_LOOP ( 'NONE', ( #97 ) ) ;
#218 = PRODUCT_DEFINITION_FORMATION_WITH_SPECIFIED_SOURCE ( 'ANY', '', #31, .NOT_KNOWN. ) ;
#219 = APPLICATION_CONTEXT ( 'configuration controlled 3d designs of mechanical parts and assemblies' ) ;
#220 = EDGE_LOOP ( 'NONE', ( #174 ) ) ;
#221 = ORIENTED_EDGE ( 'NONE', *, *, #179, .T. ) ;
#222 = CARTESIAN_POINT ( 'NONE',  ( 0.0000000000000000000, 0.0000000000000000000, 0.0000000000000000000 ) ) ;
#223 = EDGE_LOOP ( 'NONE', ( #154 ) ) ;
#224 = FACE_BOUND ( 'NONE', #217, .T. ) ;
#225 = DIRECTION ( 'NONE',  ( -3.491481338843133355E-15, 1.224646799147353207E-16, -1.000000000000000000 ) ) ;
#226 = EDGE_CURVE ( 'NONE', #169, #169, #209, .T. ) ;
#227 = DIRECTION ( 'NONE',  ( -3.491481338843133355E-15, 4.327174794786742882E-16, -1.000000000000000000 ) ) ;
#228 = VERTEX_POINT ( 'NONE', #93 ) ;
#229 = CARTESIAN_POINT ( 'NONE',  ( 1.159171804495920274E-13, -2.550000000000020250, 33.20000000000000284 ) ) ;
#230 = CONICAL_SURFACE ( 'NONE', #29, 3.500000000000014655, 0.5235987755982995928 ) ;
#231 = APPLICATION_PROTOCOL_DEFINITION ( 'international standard', 'config_control_design', 1994, #164 ) ;
#232 =( NAMED_UNIT ( * ) SI_UNIT ( $, .STERADIAN. ) SOLID_ANGLE_UNIT ( ) );
#233 = PERSON_AND_ORGANIZATION_ROLE ( 'creator' ) ;
#234 = EDGE_LOOP ( 'NONE', ( #36 ) ) ;
#235 = CC_DESIGN_PERSON_AND_ORGANIZATION_ASSIGNMENT ( #113, #215, ( #218 ) ) ;
#236 = CALENDAR_DATE ( 2021, 13, 10 ) ;
#237 = ORIENTED_EDGE ( 'NONE', *, *, #82, .T. ) ;
#238 = DIRECTION ( 'NONE',  ( -3.491481338843133355E-15, 4.327174794786742882E-16, -1.000000000000000000 ) ) ;
#239 = AXIS2_PLACEMENT_3D ( 'NONE', #67, #227, #99 ) ;
#240 = CYLINDRICAL_SURFACE ( 'NONE', #121, 2.999999999999998668 ) ;
#241 = CC_DESIGN_PERSON_AND_ORGANIZATION_ASSIGNMENT ( #133, #59, ( #159 ) ) ;
#242 = MANIFOLD_SOLID_BREP ( 'Corps-Déplacer/Copier1[1]', #109 ) ;
#243 = DIRECTION ( 'NONE',  ( -3.491481338843133355E-15, 4.327174794786742882E-16, -1.000000000000000000 ) ) ;
#244 = EDGE_LOOP ( 'NONE', ( #37 ) ) ;
#245 = PRODUCT_DEFINITION_SHAPE ( 'NONE', 'NONE',  #159 ) ;
#246 = DIRECTION ( 'NONE',  ( -3.491481338843133355E-15, 1.224646799147353207E-16, -1.000000000000000000 ) ) ;
#247 = PRODUCT_RELATED_PRODUCT_CATEGORY ( 'detail', '', ( #31 ) ) ;
#248 = AXIS2_PLACEMENT_3D ( 'NONE', #48, #255, #51 ) ;
#249 = CARTESIAN_POINT ( 'NONE',  ( 1.337237352776919886E-13, -1.647987302177966740E-14, 38.29999999999999716 ) ) ;
#250 = CARTESIAN_POINT ( 'NONE',  ( 1.373806152654729879E-13, -3.000000000000015543, 39.34737205583709141 ) ) ;
#251 = CC_DESIGN_PERSON_AND_ORGANIZATION_ASSIGNMENT ( #14, #233, ( #218 ) ) ;
#252 = VERTEX_POINT ( 'NONE', #212 ) ;
#253 = AXIS2_PLACEMENT_3D ( 'NONE', #205, #204, #203 ) ;
#254 = VERTEX_POINT ( 'NONE', #229 ) ;
#255 = DIRECTION ( 'NONE',  ( -3.491481338843133355E-15, 1.224646799147353207E-16, -1.000000000000000000 ) ) ;
#256 = EDGE_CURVE ( 'NONE', #252, #252, #20, .T. ) ;
#257 = DATE_AND_TIME ( #35, #192 ) ;
#258 = EDGE_LOOP ( 'NONE', ( #158 ) ) ;
#259 = CC_DESIGN_PERSON_AND_ORGANIZATION_ASSIGNMENT ( #107, #175, ( #31 ) ) ;
#260 = APPROVAL_STATUS ( 'not_yet_approved' ) ;
#261 = ORIENTED_EDGE ( 'NONE', *, *, #104, .T. ) ;
#262 =( GEOMETRIC_REPRESENTATION_CONTEXT ( 3 ) GLOBAL_UNCERTAINTY_ASSIGNED_CONTEXT ( ( #72 ) ) GLOBAL_UNIT_ASSIGNED_CONTEXT ( ( #32, #128, #232 ) ) REPRESENTATION_CONTEXT ( 'NONE', 'WORKASPACE' ) );
#263 = FACE_OUTER_BOUND ( 'NONE', #116, .T. ) ;
ENDSEC;
END-ISO-10303-21;
