ISO-10303-21;
HEADER;
FILE_DESCRIPTION (( 'STEP AP203' ),
    '1' );
FILE_NAME ('960163.step',
    '2021-10-13T12:57:04',
    ( '' ),
    ( '' ),
    'SwSTEP 2.0',
    'SolidWorks 2019',
    '' );
FILE_SCHEMA (( 'CONFIG_CONTROL_DESIGN' ));
ENDSEC;

DATA;
#1 = PERSON_AND_ORGANIZATION_ROLE ( 'creator' ) ;
#2 = CC_DESIGN_PERSON_AND_ORGANIZATION_ASSIGNMENT ( #242, #184, ( #191 ) ) ;
#3 = CALENDAR_DATE ( 2021, 13, 10 ) ;
#4 = PERSON_AND_ORGANIZATION ( #5, #226 ) ;
#5 = PERSON ( 'UNSPECIFIED', 'UNSPECIFIED', 'UNSPECIFIED', ('UNSPECIFIED'), ('UNSPECIFIED'), ('UNSPECIFIED') ) ;
#6 = ORIENTED_EDGE ( 'NONE', *, *, #83, .F. ) ;
#7 = LOCAL_TIME ( 14, 57, 4.000000000000000000, #223 ) ;
#8 = DIRECTION ( 'NONE',  ( 0.0000000000000000000, 1.000000000000000000, 0.0000000000000000000 ) ) ;
#9 = ADVANCED_FACE ( 'NONE', ( #177 ), #89, .F. ) ;
#10 = DIRECTION ( 'NONE',  ( -3.491481338843133355E-15, 1.224646799147353207E-16, -1.000000000000000000 ) ) ;
#11 = FACE_OUTER_BOUND ( 'NONE', #110, .T. ) ;
#12 = CLOSED_SHELL ( 'NONE', ( #69, #137, #13 ) ) ;
#13 = ADVANCED_FACE ( 'NONE', ( #31 ), #192, .T. ) ;
#14 = EDGE_LOOP ( 'NONE', ( #6 ) ) ;
#15 = DIRECTION ( 'NONE',  ( 1.510825004591027679E-30, 1.000000000000000000, 4.327174794786743375E-16 ) ) ;
#16 = UNCERTAINTY_MEASURE_WITH_UNIT (LENGTH_MEASURE( 1.000000000000000082E-05 ), #220, 'distance_accuracy_value', 'NONE');
#17 = CARTESIAN_POINT ( 'NONE',  ( 1.113782547090959477E-13, 2.249639673992777654E-32, 31.89999999999999858 ) ) ;
#18 = EDGE_CURVE ( 'NONE', #98, #98, #95, .T. ) ;
#19 = DIRECTION ( 'NONE',  ( 0.0000000000000000000, 0.0000000000000000000, 1.000000000000000000 ) ) ;
#20 = CARTESIAN_POINT ( 'NONE',  ( 1.327481355644638077E-13, -1.645216830687145770E-14, 38.02057713659398530 ) ) ;
#21 = CLOSED_SHELL ( 'NONE', ( #134, #49, #9, #97, #105, #209, #182 ) ) ;
#22 = PERSON_AND_ORGANIZATION ( #5, #226 ) ;
#23 = PERSON_AND_ORGANIZATION ( #5, #226 ) ;
#24 = ORIENTED_EDGE ( 'NONE', *, *, #227, .T. ) ;
#25 = AXIS2_PLACEMENT_3D ( 'NONE', #234, #56, #133 ) ;
#26 = COORDINATED_UNIVERSAL_TIME_OFFSET ( 1, 0, .AHEAD. ) ;
#27 = CALENDAR_DATE ( 2021, 13, 10 ) ;
#28 = EDGE_LOOP ( 'NONE', ( #24 ) ) ;
#29 = CYLINDRICAL_SURFACE ( 'NONE', #149, 2.450000000000005951 ) ;
#30 = DIRECTION ( 'NONE',  ( -3.491481338843133355E-15, 1.224646799147353207E-16, -1.000000000000000000 ) ) ;
#31 = FACE_OUTER_BOUND ( 'NONE', #148, .T. ) ;
#32 = AXIS2_PLACEMENT_3D ( 'NONE', #63, #219, #81 ) ;
#33 = DIRECTION ( 'NONE',  ( -3.491481338843133355E-15, 4.327174794786742882E-16, -1.000000000000000000 ) ) ;
#34 = CIRCLE ( 'NONE', #66, 2.450000000000005951 ) ;
#35 = CARTESIAN_POINT ( 'NONE',  ( 2.733829888314172723E-13, -9.588984437323771882E-15, 78.29999999999998295 ) ) ;
#36 = APPLICATION_PROTOCOL_DEFINITION ( 'international standard', 'config_control_design', 1994, #189 ) ;
#37 = DIRECTION ( 'NONE',  ( 3.491481338843133355E-15, -4.327174794786742882E-16, 1.000000000000000000 ) ) ;
#38 = CARTESIAN_POINT ( 'NONE',  ( 1.284865132694273075E-13, -1.604619215278546562E-14, 36.79999999999999716 ) ) ;
#39 = CIRCLE ( 'NONE', #115, 2.300000000000001599 ) ;
#40 = CALENDAR_DATE ( 2021, 13, 10 ) ;
#41 = ORIENTED_EDGE ( 'NONE', *, *, #18, .F. ) ;
#42 = EDGE_CURVE ( 'NONE', #60, #60, #39, .T. ) ;
#43 = PERSON_AND_ORGANIZATION ( #5, #226 ) ;
#44 = APPROVAL_ROLE ( '' ) ;
#45 = ORIENTED_EDGE ( 'NONE', *, *, #90, .T. ) ;
#46 = AXIS2_PLACEMENT_3D ( 'NONE', #94, #138, #193 ) ;
#47 = COORDINATED_UNIVERSAL_TIME_OFFSET ( 1, 0, .AHEAD. ) ;
#48 = ORIENTED_EDGE ( 'NONE', *, *, #58, .T. ) ;
#49 = ADVANCED_FACE ( 'NONE', ( #152, #232 ), #61, .T. ) ;
#50 = DIRECTION ( 'NONE',  ( 3.491481338843133355E-15, -4.327174794786742882E-16, 1.000000000000000000 ) ) ;
#51 = CC_DESIGN_SECURITY_CLASSIFICATION ( #144, ( #191 ) ) ;
#52 = DIRECTION ( 'NONE',  ( 0.0000000000000000000, 1.000000000000000000, 0.0000000000000000000 ) ) ;
#53 = CARTESIAN_POINT ( 'NONE',  ( 2.758270257686075477E-13, -9.674709713264090904E-15, 79.00000000000000000 ) ) ;
#54 = DIRECTION ( 'NONE',  ( 3.491481338843133355E-15, -1.224646799147353207E-16, 1.000000000000000000 ) ) ;
#55 = TOROIDAL_SURFACE ( 'NONE', #158, 3.450000000000011724, 1.000000000000000444 ) ;
#56 = DIRECTION ( 'NONE',  ( -3.491481338843133355E-15, 1.224646799147353207E-16, -1.000000000000000000 ) ) ;
#57 = PLANE ( 'NONE',  #205 ) ;
#58 = EDGE_CURVE ( 'NONE', #164, #164, #150, .T. ) ;
#59 = DIRECTION ( 'NONE',  ( 1.510825004591028030E-30, 1.000000000000000000, 4.327174794786742389E-16 ) ) ;
#60 = VERTEX_POINT ( 'NONE', #143 ) ;
#61 = CONICAL_SURFACE ( 'NONE', #111, 2.300000000000001599, 0.7853981633974337351 ) ;
#62 = LOCAL_TIME ( 14, 57, 4.000000000000000000, #104 ) ;
#63 = CARTESIAN_POINT ( 'NONE',  ( 1.113782547090959477E-13, -1.380368759536970885E-14, 31.89999999999999858 ) ) ;
#64 = VERTEX_POINT ( 'NONE', #78 ) ;
#65 = PERSON_AND_ORGANIZATION ( #5, #226 ) ;
#66 = AXIS2_PLACEMENT_3D ( 'NONE', #256, #10, #154 ) ;
#67 = DATE_AND_TIME ( #166, #7 ) ;
#68 = ORIENTED_EDGE ( 'NONE', *, *, #42, .F. ) ;
#69 = ADVANCED_FACE ( 'NONE', ( #156 ), #251, .T. ) ;
#70 = ORIENTED_EDGE ( 'NONE', *, *, #227, .F. ) ;
#71 = APPLICATION_CONTEXT ( 'configuration controlled 3d designs of mechanical parts and assemblies' ) ;
#72 = DIRECTION ( 'NONE',  ( 0.0000000000000000000, -1.000000000000000000, 0.0000000000000000000 ) ) ;
#73 = FACE_OUTER_BOUND ( 'NONE', #125, .T. ) ;
#74 = DIRECTION ( 'NONE',  ( -3.491481338843133355E-15, 1.224646799147353207E-16, -1.000000000000000000 ) ) ;
#75 = FACE_OUTER_BOUND ( 'NONE', #212, .T. ) ;
#76 = VERTEX_POINT ( 'NONE', #260 ) ;
#77 = CARTESIAN_POINT ( 'NONE',  ( 0.0000000000000000000, 0.0000000000000000000, 0.0000000000000000000 ) ) ;
#78 = CARTESIAN_POINT ( 'NONE',  ( 1.113782547090959477E-13, -2.450000000000019718, 31.89999999999999858 ) ) ;
#79 = CIRCLE ( 'NONE', #161, 2.583974596215572905 ) ;
#80 = AXIS2_PLACEMENT_3D ( 'NONE', #35, #74, #8 ) ;
#81 = DIRECTION ( 'NONE',  ( 0.0000000000000000000, -1.000000000000000000, 0.0000000000000000000 ) ) ;
#82 = APPROVAL_STATUS ( 'not_yet_approved' ) ;
#83 = EDGE_CURVE ( 'NONE', #181, #181, #79, .T. ) ;
#84 = APPROVAL_ROLE ( '' ) ;
#85 = PERSON_AND_ORGANIZATION_ROLE ( 'design_supplier' ) ;
#86 = ORIENTED_EDGE ( 'NONE', *, *, #165, .T. ) ;
#87 = APPROVAL_PERSON_ORGANIZATION ( #43, #237, #207 ) ;
#88 = CARTESIAN_POINT ( 'NONE',  ( 3.113448438045330887E-15, -1.092050706828608803E-16, 0.8917270739522097367 ) ) ;
#89 = PLANE ( 'NONE',  #259 ) ;
#90 = EDGE_CURVE ( 'NONE', #76, #76, #34, .T. ) ;
#91 = PRODUCT ( '960163', '960163', '', ( #119 ) ) ;
#92 = DIRECTION ( 'NONE',  ( -4.716563129111586193E-31, -1.000000000000000000, -1.327594496921022512E-16 ) ) ;
#93 = CIRCLE ( 'NONE', #32, 2.450000000000005951 ) ;
#94 = CARTESIAN_POINT ( 'NONE',  ( 1.113782547090959477E-13, 2.249639673992777654E-32, 31.89999999999999858 ) ) ;
#95 = CIRCLE ( 'NONE', #80, 3.000000000000001332 ) ;
#96 = CARTESIAN_POINT ( 'NONE',  ( 2.758270257686075477E-13, 1.724723750061123112E-32, 79.00000000000000000 ) ) ;
#97 = ADVANCED_FACE ( 'NONE', ( #11, #254 ), #172, .T. ) ;
#98 = VERTEX_POINT ( 'NONE', #120 ) ;
#99 = DIRECTION ( 'NONE',  ( -4.275831445896958607E-31, -1.000000000000000000, -1.224646799147353207E-16 ) ) ;
#100 = DESIGN_CONTEXT ( 'detailed design', #71, 'design' ) ;
#101 = DIRECTION ( 'NONE',  ( 1.000000000000000000, 0.0000000000000000000, 0.0000000000000000000 ) ) ;
#102 = DIRECTION ( 'NONE',  ( 0.0000000000000000000, -1.000000000000000000, 0.0000000000000000000 ) ) ;
#103 = DATE_AND_TIME ( #3, #206 ) ;
#104 = COORDINATED_UNIVERSAL_TIME_OFFSET ( 1, 0, .AHEAD. ) ;
#105 = ADVANCED_FACE ( 'NONE', ( #252, #116 ), #215, .T. ) ;
#106 = EDGE_LOOP ( 'NONE', ( #171 ) ) ;
#107 = LOCAL_TIME ( 14, 57, 4.000000000000000000, #26 ) ;
#108 = PERSON_AND_ORGANIZATION_ROLE ( 'design_owner' ) ;
#109 = APPROVAL_DATE_TIME ( #169, #127 ) ;
#110 = EDGE_LOOP ( 'NONE', ( #86 ) ) ;
#111 = AXIS2_PLACEMENT_3D ( 'NONE', #53, #233, #113 ) ;
#112 = EDGE_LOOP ( 'NONE', ( #68 ) ) ;
#113 = DIRECTION ( 'NONE',  ( 0.0000000000000000000, 1.000000000000000000, 0.0000000000000000000 ) ) ;
#114 = CARTESIAN_POINT ( 'NONE',  ( 1.302322539388488678E-13, -1.614036198455455063E-14, 37.29999999999999716 ) ) ;
#115 = AXIS2_PLACEMENT_3D ( 'NONE', #178, #30, #52 ) ;
#116 = FACE_OUTER_BOUND ( 'NONE', #243, .T. ) ;
#117 = AXIS2_PLACEMENT_3D ( 'NONE', #88, #173, #92 ) ;
#118 = DIRECTION ( 'NONE',  ( -3.491481338843133355E-15, 1.224646799147353207E-16, -1.000000000000000000 ) ) ;
#119 = MECHANICAL_CONTEXT ( 'NONE', #189, 'mechanical' ) ;
#120 = CARTESIAN_POINT ( 'NONE',  ( 2.733829888314172723E-13, 2.999999999999992006, 78.29999999999998295 ) ) ;
#121 = CARTESIAN_POINT ( 'NONE',  ( 3.113448438045329704E-15, -2.450000000000005951, 0.8917270739522094036 ) ) ;
#122 = CC_DESIGN_APPROVAL ( #237, ( #261 ) ) ;
#123 = MANIFOLD_SOLID_BREP ( 'Corps-Déplacer/Copier1[1]', #21 ) ;
#124 = DATE_AND_TIME ( #40, #235 ) ;
#125 = EDGE_LOOP ( 'NONE', ( #132 ) ) ;
#126 = MANIFOLD_SOLID_BREP ( 'Corps-Déplacer/Copier1[2]', #12 ) ;
#127 = APPROVAL ( #147, 'UNSPECIFIED' ) ;
#128 = APPROVAL_STATUS ( 'not_yet_approved' ) ;
#129 = CIRCLE ( 'NONE', #163, 2.450000000000012168 ) ;
#130 = AXIS2_PLACEMENT_3D ( 'NONE', #20, #37, #102 ) ;
#131 = PERSON_AND_ORGANIZATION ( #5, #226 ) ;
#132 = ORIENTED_EDGE ( 'NONE', *, *, #58, .F. ) ;
#133 = DIRECTION ( 'NONE',  ( 4.275831445896958607E-31, 1.000000000000000000, 1.224646799147353454E-16 ) ) ;
#134 = ADVANCED_FACE ( 'NONE', ( #196, #75 ), #210, .T. ) ;
#135 = CARTESIAN_POINT ( 'NONE',  ( 1.357718471007413372E-13, -1.682691263676157436E-14, 38.88660254037844766 ) ) ;
#136 = DIRECTION ( 'NONE',  ( -5.135813185032641787E-31, -1.000000000000000000, -1.445602896647342861E-16 ) ) ;
#137 = ADVANCED_FACE ( 'NONE', ( #250, #73 ), #29, .T. ) ;
#138 = DIRECTION ( 'NONE',  ( 3.491481338843133355E-15, -1.224646799147353207E-16, 1.000000000000000000 ) ) ;
#139 = CC_DESIGN_PERSON_AND_ORGANIZATION_ASSIGNMENT ( #65, #85, ( #191 ) ) ;
#140 = FACE_OUTER_BOUND ( 'NONE', #187, .T. ) ;
#141 = DIRECTION ( 'NONE',  ( -3.491481338843133355E-15, 4.327174794786742882E-16, -1.000000000000000000 ) ) ;
#142 = AXIS2_PLACEMENT_3D ( 'NONE', #214, #33, #174 ) ;
#143 = CARTESIAN_POINT ( 'NONE',  ( 2.758270257686075477E-13, 2.299999999999992273, 79.00000000000000000 ) ) ;
#144 = SECURITY_CLASSIFICATION ( '', '', #201 ) ;
#145 = VERTEX_POINT ( 'NONE', #236 ) ;
#146 = COORDINATED_UNIVERSAL_TIME_OFFSET ( 1, 0, .AHEAD. ) ;
#147 = APPROVAL_STATUS ( 'not_yet_approved' ) ;
#148 = EDGE_LOOP ( 'NONE', ( #168 ) ) ;
#149 = AXIS2_PLACEMENT_3D ( 'NONE', #241, #238, #59 ) ;
#150 = CIRCLE ( 'NONE', #117, 2.450000000000005951 ) ;
#151 = EDGE_LOOP ( 'NONE', ( #45 ) ) ;
#152 = FACE_OUTER_BOUND ( 'NONE', #202, .T. ) ;
#153 = CC_DESIGN_PERSON_AND_ORGANIZATION_ASSIGNMENT ( #4, #1, ( #261 ) ) ;
#154 = DIRECTION ( 'NONE',  ( 0.0000000000000000000, -1.000000000000000000, 0.0000000000000000000 ) ) ;
#155 = ORIENTED_EDGE ( 'NONE', *, *, #18, .T. ) ;
#156 = FACE_OUTER_BOUND ( 'NONE', #248, .T. ) ;
#157 = PRODUCT_RELATED_PRODUCT_CATEGORY ( 'detail', '', ( #91 ) ) ;
#158 = AXIS2_PLACEMENT_3D ( 'NONE', #38, #141, #15 ) ;
#159 =( NAMED_UNIT ( * ) PLANE_ANGLE_UNIT ( ) SI_UNIT ( $, .RADIAN. ) );
#160 = DIRECTION ( 'NONE',  ( 3.491481338843133355E-15, -1.224646799147353207E-16, 1.000000000000000000 ) ) ;
#161 = AXIS2_PLACEMENT_3D ( 'NONE', #114, #194, #230 ) ;
#162 = CARTESIAN_POINT ( 'NONE',  ( 1.284865132694273075E-13, -1.592400324481521191E-14, 36.79999999999999716 ) ) ;
#163 = AXIS2_PLACEMENT_3D ( 'NONE', #162, #197, #257 ) ;
#164 = VERTEX_POINT ( 'NONE', #121 ) ;
#165 = EDGE_CURVE ( 'NONE', #218, #218, #129, .T. ) ;
#166 = CALENDAR_DATE ( 2021, 13, 10 ) ;
#167 = DATE_TIME_ROLE ( 'creation_date' ) ;
#168 = ORIENTED_EDGE ( 'NONE', *, *, #90, .F. ) ;
#169 = DATE_AND_TIME ( #185, #62 ) ;
#170 = PERSON_AND_ORGANIZATION_ROLE ( 'classification_officer' ) ;
#171 = ORIENTED_EDGE ( 'NONE', *, *, #255, .T. ) ;
#172 = CYLINDRICAL_SURFACE ( 'NONE', #142, 2.450000000000005951 ) ;
#173 = DIRECTION ( 'NONE',  ( -3.491481338843133355E-15, 1.224646799147353207E-16, -1.000000000000000000 ) ) ;
#174 = DIRECTION ( 'NONE',  ( 1.510825004591028030E-30, 1.000000000000000000, 4.327174794786742389E-16 ) ) ;
#175 = AXIS2_PLACEMENT_3D ( 'NONE', #135, #50, #72 ) ;
#176 = APPROVAL_PERSON_ORGANIZATION ( #23, #127, #44 ) ;
#177 = FACE_OUTER_BOUND ( 'NONE', #112, .T. ) ;
#178 = CARTESIAN_POINT ( 'NONE',  ( 2.758270257686075477E-13, -9.674709713264090904E-15, 79.00000000000000000 ) ) ;
#179 = FACE_OUTER_BOUND ( 'NONE', #211, .T. ) ;
#180 = CC_DESIGN_PERSON_AND_ORGANIZATION_ASSIGNMENT ( #131, #170, ( #144 ) ) ;
#181 = VERTEX_POINT ( 'NONE', #198 ) ;
#182 = ADVANCED_FACE ( 'NONE', ( #240 ), #57, .F. ) ;
#183 = AXIS2_PLACEMENT_3D ( 'NONE', #77, #19, #101 ) ;
#184 = PERSON_AND_ORGANIZATION_ROLE ( 'creator' ) ;
#185 = CALENDAR_DATE ( 2021, 13, 10 ) ;
#186 = EDGE_LOOP ( 'NONE', ( #70 ) ) ;
#187 = EDGE_LOOP ( 'NONE', ( #249 ) ) ;
#188 = SHAPE_DEFINITION_REPRESENTATION ( #213, #190 ) ;
#189 = APPLICATION_CONTEXT ( 'configuration controlled 3d designs of mechanical parts and assemblies' ) ;
#190 = ADVANCED_BREP_SHAPE_REPRESENTATION ( '960163', ( #123, #126, #183 ), #195 ) ;
#191 = PRODUCT_DEFINITION_FORMATION_WITH_SPECIFIED_SOURCE ( 'ANY', '', #91, .NOT_KNOWN. ) ;
#192 = PLANE ( 'NONE',  #46 ) ;
#193 = DIRECTION ( 'NONE',  ( -4.275831445896958607E-31, -1.000000000000000000, -1.224646799147353207E-16 ) ) ;
#194 = DIRECTION ( 'NONE',  ( -3.491481338843133355E-15, 4.327174794786742882E-16, -1.000000000000000000 ) ) ;
#195 =( GEOMETRIC_REPRESENTATION_CONTEXT ( 3 ) GLOBAL_UNCERTAINTY_ASSIGNED_CONTEXT ( ( #16 ) ) GLOBAL_UNIT_ASSIGNED_CONTEXT ( ( #220, #159, #199 ) ) REPRESENTATION_CONTEXT ( 'NONE', 'WORKASPACE' ) );
#196 = FACE_OUTER_BOUND ( 'NONE', #106, .T. ) ;
#197 = DIRECTION ( 'NONE',  ( -3.491481338843133355E-15, 4.327174794786742882E-16, -1.000000000000000000 ) ) ;
#198 = CARTESIAN_POINT ( 'NONE',  ( 1.302322539388488678E-13, 2.583974596215556474, 37.29999999999999716 ) ) ;
#199 =( NAMED_UNIT ( * ) SI_UNIT ( $, .STERADIAN. ) SOLID_ANGLE_UNIT ( ) );
#200 = APPROVAL_DATE_TIME ( #203, #229 ) ;
#201 = SECURITY_CLASSIFICATION_LEVEL ( 'unclassified' ) ;
#202 = EDGE_LOOP ( 'NONE', ( #41 ) ) ;
#203 = DATE_AND_TIME ( #27, #107 ) ;
#204 = APPROVAL_DATE_TIME ( #124, #237 ) ;
#205 = AXIS2_PLACEMENT_3D ( 'NONE', #17, #160, #99 ) ;
#206 = LOCAL_TIME ( 14, 57, 4.000000000000000000, #47 ) ;
#207 = APPROVAL_ROLE ( '' ) ;
#208 = ORIENTED_EDGE ( 'NONE', *, *, #42, .T. ) ;
#209 = ADVANCED_FACE ( 'NONE', ( #140, #179 ), #55, .F. ) ;
#210 = CYLINDRICAL_SURFACE ( 'NONE', #25, 2.999999999999998668 ) ;
#211 = EDGE_LOOP ( 'NONE', ( #228 ) ) ;
#212 = EDGE_LOOP ( 'NONE', ( #155 ) ) ;
#213 = PRODUCT_DEFINITION_SHAPE ( 'NONE', 'NONE',  #261 ) ;
#214 = CARTESIAN_POINT ( 'NONE',  ( 0.0000000000000000000, 0.0000000000000000000, 0.0000000000000000000 ) ) ;
#215 = CONICAL_SURFACE ( 'NONE', #175, 3.500000000000014211, 0.5235987755982987046 ) ;
#216 = CC_DESIGN_APPROVAL ( #127, ( #144 ) ) ;
#217 = CARTESIAN_POINT ( 'NONE',  ( 3.812385842504467288E-15, -1.337204947137065176E-16, 1.091910702798618571 ) ) ;
#218 = VERTEX_POINT ( 'NONE', #262 ) ;
#219 = DIRECTION ( 'NONE',  ( -3.491481338843133355E-15, 1.224646799147353207E-16, -1.000000000000000000 ) ) ;
#220 =( LENGTH_UNIT ( ) NAMED_UNIT ( * ) SI_UNIT ( .MILLI., .METRE. ) );
#221 = APPROVAL_PERSON_ORGANIZATION ( #22, #229, #84 ) ;
#222 = APPLICATION_PROTOCOL_DEFINITION ( 'international standard', 'config_control_design', 1994, #71 ) ;
#223 = COORDINATED_UNIVERSAL_TIME_OFFSET ( 1, 0, .AHEAD. ) ;
#224 = ORIENTED_EDGE ( 'NONE', *, *, #255, .F. ) ;
#225 = DATE_TIME_ROLE ( 'classification_date' ) ;
#226 = ORGANIZATION ( 'UNSPECIFIED', 'UNSPECIFIED', '' ) ;
#227 = EDGE_CURVE ( 'NONE', #64, #64, #93, .T. ) ;
#228 = ORIENTED_EDGE ( 'NONE', *, *, #83, .T. ) ;
#229 = APPROVAL ( #128, 'UNSPECIFIED' ) ;
#230 = DIRECTION ( 'NONE',  ( 0.0000000000000000000, 1.000000000000000000, 0.0000000000000000000 ) ) ;
#231 = DIRECTION ( 'NONE',  ( 4.275831445896958607E-31, 1.000000000000000000, 1.224646799147353207E-16 ) ) ;
#232 = FACE_BOUND ( 'NONE', #245, .T. ) ;
#233 = DIRECTION ( 'NONE',  ( -3.491481338843133355E-15, 1.224646799147353207E-16, -1.000000000000000000 ) ) ;
#234 = CARTESIAN_POINT ( 'NONE',  ( 0.0000000000000000000, 0.0000000000000000000, 0.0000000000000000000 ) ) ;
#235 = LOCAL_TIME ( 14, 57, 4.000000000000000000, #146 ) ;
#236 = CARTESIAN_POINT ( 'NONE',  ( 1.327481355644638077E-13, -3.000000000000015099, 38.02057713659398530 ) ) ;
#237 = APPROVAL ( #82, 'UNSPECIFIED' ) ;
#238 = DIRECTION ( 'NONE',  ( -3.491481338843133355E-15, 4.327174794786742882E-16, -1.000000000000000000 ) ) ;
#239 = CC_DESIGN_PERSON_AND_ORGANIZATION_ASSIGNMENT ( #244, #108, ( #91 ) ) ;
#240 = FACE_OUTER_BOUND ( 'NONE', #28, .T. ) ;
#241 = CARTESIAN_POINT ( 'NONE',  ( 0.0000000000000000000, 0.0000000000000000000, 0.0000000000000000000 ) ) ;
#242 = PERSON_AND_ORGANIZATION ( #5, #226 ) ;
#243 = EDGE_LOOP ( 'NONE', ( #224 ) ) ;
#244 = PERSON_AND_ORGANIZATION ( #5, #226 ) ;
#245 = EDGE_LOOP ( 'NONE', ( #208 ) ) ;
#246 = CIRCLE ( 'NONE', #130, 2.999999999999998668 ) ;
#247 = CC_DESIGN_DATE_AND_TIME_ASSIGNMENT ( #67, #167, ( #261 ) ) ;
#248 = EDGE_LOOP ( 'NONE', ( #48 ) ) ;
#249 = ORIENTED_EDGE ( 'NONE', *, *, #165, .F. ) ;
#250 = FACE_OUTER_BOUND ( 'NONE', #151, .T. ) ;
#251 = CONICAL_SURFACE ( 'NONE', #263, 2.999999999999992450, 1.221730476396026610 ) ;
#252 = FACE_BOUND ( 'NONE', #14, .T. ) ;
#253 = CC_DESIGN_APPROVAL ( #229, ( #191 ) ) ;
#254 = FACE_OUTER_BOUND ( 'NONE', #186, .T. ) ;
#255 = EDGE_CURVE ( 'NONE', #145, #145, #246, .T. ) ;
#256 = CARTESIAN_POINT ( 'NONE',  ( 1.113782547090959477E-13, -1.380368759536970885E-14, 31.89999999999999858 ) ) ;
#257 = DIRECTION ( 'NONE',  ( 0.0000000000000000000, 1.000000000000000000, 0.0000000000000000000 ) ) ;
#258 = CC_DESIGN_DATE_AND_TIME_ASSIGNMENT ( #103, #225, ( #144 ) ) ;
#259 = AXIS2_PLACEMENT_3D ( 'NONE', #96, #118, #231 ) ;
#260 = CARTESIAN_POINT ( 'NONE',  ( 1.113782547090959477E-13, -2.450000000000019718, 31.89999999999999858 ) ) ;
#261 = PRODUCT_DEFINITION ( 'UNKNOWN', '', #191, #100 ) ;
#262 = CARTESIAN_POINT ( 'NONE',  ( 1.284865132694273075E-13, 2.449999999999996181, 36.79999999999999716 ) ) ;
#263 = AXIS2_PLACEMENT_3D ( 'NONE', #217, #54, #136 ) ;
ENDSEC;
END-ISO-10303-21;
