ISO-10303-21;
HEADER;
FILE_DESCRIPTION (( 'STEP AP203' ),
    '1' );
FILE_NAME ('960162.step',
    '2021-10-13T12:57:03',
    ( '' ),
    ( '' ),
    'SwSTEP 2.0',
    'SolidWorks 2019',
    '' );
FILE_SCHEMA (( 'CONFIG_CONTROL_DESIGN' ));
ENDSEC;

DATA;
#1 = AXIS2_PLACEMENT_3D ( 'NONE', #57, #198, #20 ) ;
#2 = TOROIDAL_SURFACE ( 'NONE', #100, 3.400000000000011013, 1.000000000000000444 ) ;
#3 = DIRECTION ( 'NONE',  ( 1.510825004591028205E-30, 1.000000000000000000, 4.327174794786742882E-16 ) ) ;
#4 = VERTEX_POINT ( 'NONE', #251 ) ;
#5 = PLANE ( 'NONE',  #246 ) ;
#6 = CIRCLE ( 'NONE', #208, 2.400000000000005240 ) ;
#7 = PERSON_AND_ORGANIZATION ( #102, #80 ) ;
#8 = APPROVAL_DATE_TIME ( #209, #117 ) ;
#9 = APPROVAL_STATUS ( 'not_yet_approved' ) ;
#10 = DATE_AND_TIME ( #55, #63 ) ;
#11 = EDGE_LOOP ( 'NONE', ( #12 ) ) ;
#12 = ORIENTED_EDGE ( 'NONE', *, *, #61, .T. ) ;
#13 = FACE_OUTER_BOUND ( 'NONE', #154, .T. ) ;
#14 = PRODUCT_DEFINITION_SHAPE ( 'NONE', 'NONE',  #196 ) ;
#15 = CARTESIAN_POINT ( 'NONE',  ( 1.274390688677743612E-13, -1.579418800097160994E-14, 36.50000000000000000 ) ) ;
#16 = CYLINDRICAL_SURFACE ( 'NONE', #150, 2.400000000000005240 ) ;
#17 = CIRCLE ( 'NONE', #39, 2.300000000000001599 ) ;
#18 = CIRCLE ( 'NONE', #1, 3.000000000000001332 ) ;
#19 = APPROVAL_PERSON_ORGANIZATION ( #99, #78, #50 ) ;
#20 = DIRECTION ( 'NONE',  ( 0.0000000000000000000, 1.000000000000000000, 0.0000000000000000000 ) ) ;
#21 = ADVANCED_FACE ( 'NONE', ( #37, #34 ), #53, .T. ) ;
#22 = DIRECTION ( 'NONE',  ( -3.491481338843133355E-15, 4.327174794786742882E-16, -1.000000000000000000 ) ) ;
#23 = CARTESIAN_POINT ( 'NONE',  ( 1.274390688677743612E-13, 2.533974596215556652, 36.50000000000000000 ) ) ;
#24 = CARTESIAN_POINT ( 'NONE',  ( 2.758270257686075477E-13, 2.299999999999992273, 79.00000000000000000 ) ) ;
#25 = AXIS2_PLACEMENT_3D ( 'NONE', #260, #219, #73 ) ;
#26 = EDGE_LOOP ( 'NONE', ( #105 ) ) ;
#27 = CALENDAR_DATE ( 2021, 13, 10 ) ;
#28 = MANIFOLD_SOLID_BREP ( 'Corps-Déplacer/Copier1[2]', #121 ) ;
#29 = MECHANICAL_CONTEXT ( 'NONE', #240, 'mechanical' ) ;
#30 = ORIENTED_EDGE ( 'NONE', *, *, #153, .T. ) ;
#31 = COORDINATED_UNIVERSAL_TIME_OFFSET ( 1, 0, .AHEAD. ) ;
#32 = AXIS2_PLACEMENT_3D ( 'NONE', #42, #182, #41 ) ;
#33 = EDGE_CURVE ( 'NONE', #250, #250, #224, .T. ) ;
#34 = FACE_OUTER_BOUND ( 'NONE', #172, .T. ) ;
#35 = CC_DESIGN_PERSON_AND_ORGANIZATION_ASSIGNMENT ( #167, #254, ( #70 ) ) ;
#36 = DIRECTION ( 'NONE',  ( 3.491481338843133355E-15, -4.327174794786742882E-16, 1.000000000000000000 ) ) ;
#37 = FACE_BOUND ( 'NONE', #187, .T. ) ;
#38 = FACE_OUTER_BOUND ( 'NONE', #59, .T. ) ;
#39 = AXIS2_PLACEMENT_3D ( 'NONE', #137, #222, #157 ) ;
#40 = DIRECTION ( 'NONE',  ( -3.491481338843133355E-15, 1.224646799147353207E-16, -1.000000000000000000 ) ) ;
#41 = DIRECTION ( 'NONE',  ( -5.135813185032641787E-31, -1.000000000000000000, -1.445602896647342861E-16 ) ) ;
#42 = CARTESIAN_POINT ( 'NONE',  ( 3.812385842504467288E-15, -1.337204947137065176E-16, 1.091910702798618571 ) ) ;
#43 = APPROVAL_PERSON_ORGANIZATION ( #149, #117, #79 ) ;
#44 = DIRECTION ( 'NONE',  ( -3.491481338843133355E-15, 4.327174794786742882E-16, -1.000000000000000000 ) ) ;
#45 = CYLINDRICAL_SURFACE ( 'NONE', #168, 2.400000000000005240 ) ;
#46 = EDGE_CURVE ( 'NONE', #114, #114, #138, .T. ) ;
#47 = PERSON_AND_ORGANIZATION ( #102, #80 ) ;
#48 = PERSON_AND_ORGANIZATION_ROLE ( 'creator' ) ;
#49 = CC_DESIGN_SECURITY_CLASSIFICATION ( #124, ( #70 ) ) ;
#50 = APPROVAL_ROLE ( '' ) ;
#51 = APPROVAL_STATUS ( 'not_yet_approved' ) ;
#52 = CC_DESIGN_PERSON_AND_ORGANIZATION_ASSIGNMENT ( #147, #216, ( #130 ) ) ;
#53 = CONICAL_SURFACE ( 'NONE', #236, 3.500000000000013767, 0.5235987755982993708 ) ;
#54 = ADVANCED_FACE ( 'NONE', ( #179 ), #261, .T. ) ;
#55 = CALENDAR_DATE ( 2021, 13, 10 ) ;
#56 = CARTESIAN_POINT ( 'NONE',  ( 1.256933281983528008E-13, -1.561251128379126385E-14, 36.00000000000000000 ) ) ;
#57 = CARTESIAN_POINT ( 'NONE',  ( 2.733829888314172723E-13, -9.588984437323771882E-15, 78.29999999999998295 ) ) ;
#58 = DIRECTION ( 'NONE',  ( 3.491481338843133355E-15, -1.224646799147353207E-16, 1.000000000000000000 ) ) ;
#59 = EDGE_LOOP ( 'NONE', ( #83 ) ) ;
#60 = CIRCLE ( 'NONE', #193, 2.533974596215572195 ) ;
#61 = EDGE_CURVE ( 'NONE', #4, #4, #6, .T. ) ;
#62 = FACE_OUTER_BOUND ( 'NONE', #232, .T. ) ;
#63 = LOCAL_TIME ( 14, 57, 3.000000000000000000, #233 ) ;
#64 = PERSON_AND_ORGANIZATION ( #102, #80 ) ;
#65 = APPROVAL_DATE_TIME ( #127, #125 ) ;
#66 = APPROVAL_STATUS ( 'not_yet_approved' ) ;
#67 = CC_DESIGN_DATE_AND_TIME_ASSIGNMENT ( #10, #144, ( #196 ) ) ;
#68 = APPROVAL_ROLE ( '' ) ;
#69 = ORIENTED_EDGE ( 'NONE', *, *, #46, .F. ) ;
#70 = PRODUCT_DEFINITION_FORMATION_WITH_SPECIFIED_SOURCE ( 'ANY', '', #130, .NOT_KNOWN. ) ;
#71 = DIRECTION ( 'NONE',  ( 1.510825004591028205E-30, 1.000000000000000000, 4.327174794786742882E-16 ) ) ;
#72 = FACE_OUTER_BOUND ( 'NONE', #11, .T. ) ;
#73 = DIRECTION ( 'NONE',  ( -4.275831445896958607E-31, -1.000000000000000000, -1.224646799147353207E-16 ) ) ;
#74 = DIRECTION ( 'NONE',  ( -3.491481338843133355E-15, 4.327174794786742882E-16, -1.000000000000000000 ) ) ;
#75 = DIRECTION ( 'NONE',  ( 1.510825004591027855E-30, 1.000000000000000000, 4.327174794786742389E-16 ) ) ;
#76 = APPROVAL_PERSON_ORGANIZATION ( #7, #125, #68 ) ;
#77 = CARTESIAN_POINT ( 'NONE',  ( 2.758270257686075477E-13, -9.674709713264090904E-15, 79.00000000000000000 ) ) ;
#78 = APPROVAL ( #66, 'UNSPECIFIED' ) ;
#79 = APPROVAL_ROLE ( '' ) ;
#80 = ORGANIZATION ( 'UNSPECIFIED', 'UNSPECIFIED', '' ) ;
#81 = PERSON_AND_ORGANIZATION_ROLE ( 'classification_officer' ) ;
#82 = ORIENTED_EDGE ( 'NONE', *, *, #61, .F. ) ;
#83 = ORIENTED_EDGE ( 'NONE', *, *, #33, .F. ) ;
#84 = EDGE_LOOP ( 'NONE', ( #131 ) ) ;
#85 = ADVANCED_FACE ( 'NONE', ( #13, #178 ), #16, .T. ) ;
#86 = ORIENTED_EDGE ( 'NONE', *, *, #143, .F. ) ;
#87 = ORIENTED_EDGE ( 'NONE', *, *, #133, .F. ) ;
#88 = DESIGN_CONTEXT ( 'detailed design', #106, 'design' ) ;
#89 = CARTESIAN_POINT ( 'NONE',  ( 1.332810331832945684E-13, -1.651821308616764439E-14, 38.17320508075688679 ) ) ;
#90 = EDGE_CURVE ( 'NONE', #226, #226, #17, .T. ) ;
#91 = LOCAL_TIME ( 14, 57, 3.000000000000000000, #169 ) ;
#92 = DIRECTION ( 'NONE',  ( -3.491481338843133355E-15, 1.224646799147353207E-16, -1.000000000000000000 ) ) ;
#93 = ADVANCED_FACE ( 'NONE', ( #72 ), #242, .F. ) ;
#94 = CARTESIAN_POINT ( 'NONE',  ( 1.256933281983528008E-13, 2.399999999999995914, 36.00000000000000000 ) ) ;
#95 =( NAMED_UNIT ( * ) PLANE_ANGLE_UNIT ( ) SI_UNIT ( $, .RADIAN. ) );
#96 = CARTESIAN_POINT ( 'NONE',  ( 1.089342177719057607E-13, -2.400000000000019007, 31.19999999999999929 ) ) ;
#97 = VERTEX_POINT ( 'NONE', #96 ) ;
#98 = DIRECTION ( 'NONE',  ( 0.0000000000000000000, 1.000000000000000000, 0.0000000000000000000 ) ) ;
#99 = PERSON_AND_ORGANIZATION ( #102, #80 ) ;
#100 = AXIS2_PLACEMENT_3D ( 'NONE', #56, #74, #75 ) ;
#101 = CONICAL_SURFACE ( 'NONE', #32, 2.999999999999992450, 1.221730476396026610 ) ;
#102 = PERSON ( 'UNSPECIFIED', 'UNSPECIFIED', 'UNSPECIFIED', ('UNSPECIFIED'), ('UNSPECIFIED'), ('UNSPECIFIED') ) ;
#103 = CC_DESIGN_PERSON_AND_ORGANIZATION_ASSIGNMENT ( #64, #145, ( #70 ) ) ;
#104 = SECURITY_CLASSIFICATION_LEVEL ( 'unclassified' ) ;
#105 = ORIENTED_EDGE ( 'NONE', *, *, #133, .T. ) ;
#106 = APPLICATION_CONTEXT ( 'configuration controlled 3d designs of mechanical parts and assemblies' ) ;
#107 = EDGE_LOOP ( 'NONE', ( #69 ) ) ;
#108 = ADVANCED_FACE ( 'NONE', ( #38, #243 ), #2, .F. ) ;
#109 = CARTESIAN_POINT ( 'NONE',  ( 1.089342177719057607E-13, -1.350078535973463811E-14, 31.19999999999999929 ) ) ;
#110 = DIRECTION ( 'NONE',  ( 0.0000000000000000000, 1.000000000000000000, 0.0000000000000000000 ) ) ;
#111 = AXIS2_PLACEMENT_3D ( 'NONE', #239, #58, #136 ) ;
#112 = AXIS2_PLACEMENT_3D ( 'NONE', #221, #192, #175 ) ;
#113 = DIRECTION ( 'NONE',  ( 4.275831445896958607E-31, 1.000000000000000000, 1.224646799147353454E-16 ) ) ;
#114 = VERTEX_POINT ( 'NONE', #139 ) ;
#115 = DIRECTION ( 'NONE',  ( 0.0000000000000000000, 0.0000000000000000000, 1.000000000000000000 ) ) ;
#116 = DIRECTION ( 'NONE',  ( -3.491481338843133355E-15, 1.224646799147353207E-16, -1.000000000000000000 ) ) ;
#117 = APPROVAL ( #51, 'UNSPECIFIED' ) ;
#118 = CIRCLE ( 'NONE', #181, 2.400000000000005240 ) ;
#119 = DIRECTION ( 'NONE',  ( -3.491481338843133355E-15, 1.224646799147353207E-16, -1.000000000000000000 ) ) ;
#120 = FACE_OUTER_BOUND ( 'NONE', #234, .T. ) ;
#121 = CLOSED_SHELL ( 'NONE', ( #245, #85, #54 ) ) ;
#122 = DATE_AND_TIME ( #27, #91 ) ;
#123 = ADVANCED_FACE ( 'NONE', ( #262, #225 ), #263, .T. ) ;
#124 = SECURITY_CLASSIFICATION ( '', '', #104 ) ;
#125 = APPROVAL ( #9, 'UNSPECIFIED' ) ;
#126 = COORDINATED_UNIVERSAL_TIME_OFFSET ( 1, 0, .AHEAD. ) ;
#127 = DATE_AND_TIME ( #230, #256 ) ;
#128 = ORIENTED_EDGE ( 'NONE', *, *, #46, .T. ) ;
#129 =( GEOMETRIC_REPRESENTATION_CONTEXT ( 3 ) GLOBAL_UNCERTAINTY_ASSIGNED_CONTEXT ( ( #170 ) ) GLOBAL_UNIT_ASSIGNED_CONTEXT ( ( #183, #95, #184 ) ) REPRESENTATION_CONTEXT ( 'NONE', 'WORKASPACE' ) );
#130 = PRODUCT ( '960162', '960162', '', ( #29 ) ) ;
#131 = ORIENTED_EDGE ( 'NONE', *, *, #143, .T. ) ;
#132 = DIRECTION ( 'NONE',  ( -3.491481338843133355E-15, 4.327174794786742882E-16, -1.000000000000000000 ) ) ;
#133 = EDGE_CURVE ( 'NONE', #199, #199, #18, .T. ) ;
#134 = AXIS2_PLACEMENT_3D ( 'NONE', #77, #227, #98 ) ;
#135 = ORIENTED_EDGE ( 'NONE', *, *, #90, .F. ) ;
#136 = DIRECTION ( 'NONE',  ( -4.275831445896958607E-31, -1.000000000000000000, -1.224646799147353207E-16 ) ) ;
#137 = CARTESIAN_POINT ( 'NONE',  ( 2.758270257686075477E-13, -9.674709713264090904E-15, 79.00000000000000000 ) ) ;
#138 = CIRCLE ( 'NONE', #112, 2.400000000000005240 ) ;
#139 = CARTESIAN_POINT ( 'NONE',  ( 3.049908674003587557E-15, -2.400000000000005240, 0.8735285622388988536 ) ) ;
#140 = CARTESIAN_POINT ( 'NONE',  ( 0.0000000000000000000, 0.0000000000000000000, 0.0000000000000000000 ) ) ;
#141 = CARTESIAN_POINT ( 'NONE',  ( 0.0000000000000000000, 0.0000000000000000000, 0.0000000000000000000 ) ) ;
#142 = FACE_OUTER_BOUND ( 'NONE', #218, .T. ) ;
#143 = EDGE_CURVE ( 'NONE', #207, #207, #252, .T. ) ;
#144 = DATE_TIME_ROLE ( 'creation_date' ) ;
#145 = PERSON_AND_ORGANIZATION_ROLE ( 'design_supplier' ) ;
#146 = ORIENTED_EDGE ( 'NONE', *, *, #249, .T. ) ;
#147 = PERSON_AND_ORGANIZATION ( #102, #80 ) ;
#148 = EDGE_LOOP ( 'NONE', ( #135 ) ) ;
#149 = PERSON_AND_ORGANIZATION ( #102, #80 ) ;
#150 = AXIS2_PLACEMENT_3D ( 'NONE', #259, #132, #71 ) ;
#151 = AXIS2_PLACEMENT_3D ( 'NONE', #156, #40, #113 ) ;
#152 = CC_DESIGN_APPROVAL ( #125, ( #70 ) ) ;
#153 = EDGE_CURVE ( 'NONE', #247, #247, #60, .T. ) ;
#154 = EDGE_LOOP ( 'NONE', ( #146 ) ) ;
#155 = PRODUCT_RELATED_PRODUCT_CATEGORY ( 'detail', '', ( #130 ) ) ;
#156 = CARTESIAN_POINT ( 'NONE',  ( 0.0000000000000000000, 0.0000000000000000000, 0.0000000000000000000 ) ) ;
#157 = DIRECTION ( 'NONE',  ( 0.0000000000000000000, 1.000000000000000000, 0.0000000000000000000 ) ) ;
#158 = DIRECTION ( 'NONE',  ( 0.0000000000000000000, -1.000000000000000000, 0.0000000000000000000 ) ) ;
#159 = DIRECTION ( 'NONE',  ( 4.275831445896958607E-31, 1.000000000000000000, 1.224646799147353207E-16 ) ) ;
#160 = FACE_BOUND ( 'NONE', #197, .T. ) ;
#161 = AXIS2_PLACEMENT_3D ( 'NONE', #140, #115, #200 ) ;
#162 = ADVANCED_FACE ( 'NONE', ( #229 ), #5, .F. ) ;
#163 = APPLICATION_PROTOCOL_DEFINITION ( 'international standard', 'config_control_design', 1994, #240 ) ;
#164 = CARTESIAN_POINT ( 'NONE',  ( 1.089342177719057607E-13, -1.350078535973463811E-14, 31.19999999999999929 ) ) ;
#165 = CLOSED_SHELL ( 'NONE', ( #123, #238, #162, #213, #21, #108, #93 ) ) ;
#166 = CC_DESIGN_APPROVAL ( #117, ( #124 ) ) ;
#167 = PERSON_AND_ORGANIZATION ( #102, #80 ) ;
#168 = AXIS2_PLACEMENT_3D ( 'NONE', #141, #22, #3 ) ;
#169 = COORDINATED_UNIVERSAL_TIME_OFFSET ( 1, 0, .AHEAD. ) ;
#170 = UNCERTAINTY_MEASURE_WITH_UNIT (LENGTH_MEASURE( 1.000000000000000082E-05 ), #183, 'distance_accuracy_value', 'NONE');
#171 = CALENDAR_DATE ( 2021, 13, 10 ) ;
#172 = EDGE_LOOP ( 'NONE', ( #86 ) ) ;
#173 = AXIS2_PLACEMENT_3D ( 'NONE', #174, #176, #110 ) ;
#174 = CARTESIAN_POINT ( 'NONE',  ( 1.256933281983528008E-13, -1.557782926123227122E-14, 36.00000000000000000 ) ) ;
#175 = DIRECTION ( 'NONE',  ( -4.814824860968079123E-31, -1.000000000000000000, -1.355252715606877584E-16 ) ) ;
#176 = DIRECTION ( 'NONE',  ( -3.491481338843133355E-15, 4.327174794786742882E-16, -1.000000000000000000 ) ) ;
#177 = CC_DESIGN_APPROVAL ( #78, ( #196 ) ) ;
#178 = FACE_OUTER_BOUND ( 'NONE', #107, .T. ) ;
#179 = FACE_OUTER_BOUND ( 'NONE', #217, .T. ) ;
#180 = DIRECTION ( 'NONE',  ( 0.0000000000000000000, 1.000000000000000000, 0.0000000000000000000 ) ) ;
#181 = AXIS2_PLACEMENT_3D ( 'NONE', #164, #116, #228 ) ;
#182 = DIRECTION ( 'NONE',  ( 3.491481338843133355E-15, -1.224646799147353207E-16, 1.000000000000000000 ) ) ;
#183 =( LENGTH_UNIT ( ) NAMED_UNIT ( * ) SI_UNIT ( .MILLI., .METRE. ) );
#184 =( NAMED_UNIT ( * ) SI_UNIT ( $, .STERADIAN. ) SOLID_ANGLE_UNIT ( ) );
#185 = LOCAL_TIME ( 14, 57, 3.000000000000000000, #31 ) ;
#186 = CALENDAR_DATE ( 2021, 13, 10 ) ;
#187 = EDGE_LOOP ( 'NONE', ( #255 ) ) ;
#188 = PERSON_AND_ORGANIZATION ( #102, #80 ) ;
#189 = CC_DESIGN_PERSON_AND_ORGANIZATION_ASSIGNMENT ( #47, #81, ( #124 ) ) ;
#190 = AXIS2_PLACEMENT_3D ( 'NONE', #237, #36, #194 ) ;
#191 = ORIENTED_EDGE ( 'NONE', *, *, #90, .T. ) ;
#192 = DIRECTION ( 'NONE',  ( -3.491481338843133355E-15, 1.224646799147353207E-16, -1.000000000000000000 ) ) ;
#193 = AXIS2_PLACEMENT_3D ( 'NONE', #15, #44, #180 ) ;
#194 = DIRECTION ( 'NONE',  ( 0.0000000000000000000, -1.000000000000000000, 0.0000000000000000000 ) ) ;
#195 = DIRECTION ( 'NONE',  ( 0.0000000000000000000, -1.000000000000000000, 0.0000000000000000000 ) ) ;
#196 = PRODUCT_DEFINITION ( 'UNKNOWN', '', #70, #88 ) ;
#197 = EDGE_LOOP ( 'NONE', ( #191 ) ) ;
#198 = DIRECTION ( 'NONE',  ( -3.491481338843133355E-15, 1.224646799147353207E-16, -1.000000000000000000 ) ) ;
#199 = VERTEX_POINT ( 'NONE', #203 ) ;
#200 = DIRECTION ( 'NONE',  ( 1.000000000000000000, 0.0000000000000000000, 0.0000000000000000000 ) ) ;
#201 = CC_DESIGN_PERSON_AND_ORGANIZATION_ASSIGNMENT ( #188, #48, ( #196 ) ) ;
#202 = MANIFOLD_SOLID_BREP ( 'Corps-Déplacer/Copier1[1]', #165 ) ;
#203 = CARTESIAN_POINT ( 'NONE',  ( 2.733829888314172723E-13, 2.999999999999992006, 78.29999999999998295 ) ) ;
#204 = CONICAL_SURFACE ( 'NONE', #134, 2.300000000000001599, 0.7853981633974337351 ) ;
#205 = CARTESIAN_POINT ( 'NONE',  ( 1.302573216470170136E-13, -3.000000000000014655, 37.30717967697242443 ) ) ;
#206 = CC_DESIGN_DATE_AND_TIME_ASSIGNMENT ( #122, #231, ( #124 ) ) ;
#207 = VERTEX_POINT ( 'NONE', #205 ) ;
#208 = AXIS2_PLACEMENT_3D ( 'NONE', #109, #92, #195 ) ;
#209 = DATE_AND_TIME ( #171, #220 ) ;
#210 = ORIENTED_EDGE ( 'NONE', *, *, #33, .T. ) ;
#211 = APPLICATION_PROTOCOL_DEFINITION ( 'international standard', 'config_control_design', 1994, #106 ) ;
#212 = ORIENTED_EDGE ( 'NONE', *, *, #249, .F. ) ;
#213 = ADVANCED_FACE ( 'NONE', ( #244, #120 ), #45, .T. ) ;
#214 = DATE_AND_TIME ( #186, #185 ) ;
#215 = EDGE_LOOP ( 'NONE', ( #210 ) ) ;
#216 = PERSON_AND_ORGANIZATION_ROLE ( 'design_owner' ) ;
#217 = EDGE_LOOP ( 'NONE', ( #212 ) ) ;
#218 = EDGE_LOOP ( 'NONE', ( #128 ) ) ;
#219 = DIRECTION ( 'NONE',  ( 3.491481338843133355E-15, -1.224646799147353207E-16, 1.000000000000000000 ) ) ;
#220 = LOCAL_TIME ( 14, 57, 3.000000000000000000, #253 ) ;
#221 = CARTESIAN_POINT ( 'NONE',  ( 3.049908674003588740E-15, -1.069763957709657540E-16, 0.8735285622388991866 ) ) ;
#222 = DIRECTION ( 'NONE',  ( -3.491481338843133355E-15, 1.224646799147353207E-16, -1.000000000000000000 ) ) ;
#223 = ADVANCED_BREP_SHAPE_REPRESENTATION ( '960162', ( #202, #28, #161 ), #129 ) ;
#224 = CIRCLE ( 'NONE', #173, 2.400000000000011458 ) ;
#225 = FACE_OUTER_BOUND ( 'NONE', #26, .T. ) ;
#226 = VERTEX_POINT ( 'NONE', #24 ) ;
#227 = DIRECTION ( 'NONE',  ( -3.491481338843133355E-15, 1.224646799147353207E-16, -1.000000000000000000 ) ) ;
#228 = DIRECTION ( 'NONE',  ( 0.0000000000000000000, -1.000000000000000000, 0.0000000000000000000 ) ) ;
#229 = FACE_OUTER_BOUND ( 'NONE', #148, .T. ) ;
#230 = CALENDAR_DATE ( 2021, 13, 10 ) ;
#231 = DATE_TIME_ROLE ( 'classification_date' ) ;
#232 = EDGE_LOOP ( 'NONE', ( #87 ) ) ;
#233 = COORDINATED_UNIVERSAL_TIME_OFFSET ( 1, 0, .AHEAD. ) ;
#234 = EDGE_LOOP ( 'NONE', ( #82 ) ) ;
#235 = SHAPE_DEFINITION_REPRESENTATION ( #14, #223 ) ;
#236 = AXIS2_PLACEMENT_3D ( 'NONE', #89, #241, #158 ) ;
#237 = CARTESIAN_POINT ( 'NONE',  ( 1.302573216470170136E-13, -1.614346875627753088E-14, 37.30717967697242443 ) ) ;
#238 = ADVANCED_FACE ( 'NONE', ( #62, #160 ), #204, .T. ) ;
#239 = CARTESIAN_POINT ( 'NONE',  ( 1.089342177719057607E-13, 2.249639673992777654E-32, 31.19999999999999929 ) ) ;
#240 = APPLICATION_CONTEXT ( 'configuration controlled 3d designs of mechanical parts and assemblies' ) ;
#241 = DIRECTION ( 'NONE',  ( 3.491481338843133355E-15, -4.327174794786742882E-16, 1.000000000000000000 ) ) ;
#242 = PLANE ( 'NONE',  #111 ) ;
#243 = FACE_OUTER_BOUND ( 'NONE', #258, .T. ) ;
#244 = FACE_OUTER_BOUND ( 'NONE', #215, .T. ) ;
#245 = ADVANCED_FACE ( 'NONE', ( #142 ), #101, .T. ) ;
#246 = AXIS2_PLACEMENT_3D ( 'NONE', #248, #119, #159 ) ;
#247 = VERTEX_POINT ( 'NONE', #23 ) ;
#248 = CARTESIAN_POINT ( 'NONE',  ( 2.758270257686075477E-13, 1.724723750061123112E-32, 79.00000000000000000 ) ) ;
#249 = EDGE_CURVE ( 'NONE', #97, #97, #118, .T. ) ;
#250 = VERTEX_POINT ( 'NONE', #94 ) ;
#251 = CARTESIAN_POINT ( 'NONE',  ( 1.089342177719057607E-13, -2.400000000000019007, 31.19999999999999929 ) ) ;
#252 = CIRCLE ( 'NONE', #190, 2.999999999999998668 ) ;
#253 = COORDINATED_UNIVERSAL_TIME_OFFSET ( 1, 0, .AHEAD. ) ;
#254 = PERSON_AND_ORGANIZATION_ROLE ( 'creator' ) ;
#255 = ORIENTED_EDGE ( 'NONE', *, *, #153, .F. ) ;
#256 = LOCAL_TIME ( 14, 57, 3.000000000000000000, #126 ) ;
#257 = APPROVAL_DATE_TIME ( #214, #78 ) ;
#258 = EDGE_LOOP ( 'NONE', ( #30 ) ) ;
#259 = CARTESIAN_POINT ( 'NONE',  ( 0.0000000000000000000, 0.0000000000000000000, 0.0000000000000000000 ) ) ;
#260 = CARTESIAN_POINT ( 'NONE',  ( 1.089342177719057607E-13, 2.249639673992777654E-32, 31.19999999999999929 ) ) ;
#261 = PLANE ( 'NONE',  #25 ) ;
#262 = FACE_OUTER_BOUND ( 'NONE', #84, .T. ) ;
#263 = CYLINDRICAL_SURFACE ( 'NONE', #151, 2.999999999999998668 ) ;
ENDSEC;
END-ISO-10303-21;
