ISO-10303-21;
HEADER;
FILE_DESCRIPTION (( 'STEP AP203' ),
    '1' );
FILE_NAME ('960161.step',
    '2021-10-13T12:57:03',
    ( '' ),
    ( '' ),
    'SwSTEP 2.0',
    'SolidWorks 2019',
    '' );
FILE_SCHEMA (( 'CONFIG_CONTROL_DESIGN' ));
ENDSEC;

DATA;
#1 = EDGE_LOOP ( 'NONE', ( #212 ) ) ;
#2 = PRODUCT_DEFINITION_FORMATION_WITH_SPECIFIED_SOURCE ( 'ANY', '', #98, .NOT_KNOWN. ) ;
#3 = VERTEX_POINT ( 'NONE', #229 ) ;
#4 = FACE_OUTER_BOUND ( 'NONE', #26, .T. ) ;
#5 = ORIENTED_EDGE ( 'NONE', *, *, #44, .T. ) ;
#6 = CARTESIAN_POINT ( 'NONE',  ( 1.249950319305841615E-13, 2.483974596215557717, 35.79999999999999716 ) ) ;
#7 = DIRECTION ( 'NONE',  ( 0.0000000000000000000, 1.000000000000000000, 0.0000000000000000000 ) ) ;
#8 = CONICAL_SURFACE ( 'NONE', #169, 2.300000000000001599, 0.7853981633974337351 ) ;
#9 = DIRECTION ( 'NONE',  ( 4.275831445896958607E-31, 1.000000000000000000, 1.224646799147353207E-16 ) ) ;
#10 = CARTESIAN_POINT ( 'NONE',  ( 1.068393289685998933E-13, -1.324115487204743417E-14, 30.60000000000000142 ) ) ;
#11 = APPLICATION_PROTOCOL_DEFINITION ( 'international standard', 'config_control_design', 1994, #181 ) ;
#12 = DATE_AND_TIME ( #197, #86 ) ;
#13 = CIRCLE ( 'NONE', #223, 2.300000000000001599 ) ;
#14 = CARTESIAN_POINT ( 'NONE',  ( 1.232492912611626011E-13, -1.527492702559720206E-14, 35.29999999999999716 ) ) ;
#15 = DATE_AND_TIME ( #260, #247 ) ;
#16 = CC_DESIGN_PERSON_AND_ORGANIZATION_ASSIGNMENT ( #138, #99, ( #2 ) ) ;
#17 = DATE_TIME_ROLE ( 'creation_date' ) ;
#18 = COORDINATED_UNIVERSAL_TIME_OFFSET ( 1, 0, .AHEAD. ) ;
#19 = AXIS2_PLACEMENT_3D ( 'NONE', #200, #186, #182 ) ;
#20 = AXIS2_PLACEMENT_3D ( 'NONE', #95, #31, #178 ) ;
#21 = ADVANCED_FACE ( 'NONE', ( #96 ), #94, .F. ) ;
#22 = DIRECTION ( 'NONE',  ( 1.510825004591028030E-30, 1.000000000000000000, 4.327174794786742882E-16 ) ) ;
#23 = AXIS2_PLACEMENT_3D ( 'NONE', #10, #173, #248 ) ;
#24 = EDGE_CURVE ( 'NONE', #150, #150, #51, .T. ) ;
#25 = FACE_OUTER_BOUND ( 'NONE', #193, .T. ) ;
#26 = EDGE_LOOP ( 'NONE', ( #226 ) ) ;
#27 = CC_DESIGN_APPROVAL ( #36, ( #157 ) ) ;
#28 = DIRECTION ( 'NONE',  ( -3.491481338843133355E-15, 1.224646799147353207E-16, -1.000000000000000000 ) ) ;
#29 = DIRECTION ( 'NONE',  ( -3.491481338843133355E-15, 4.327174794786742882E-16, -1.000000000000000000 ) ) ;
#30 = DIRECTION ( 'NONE',  ( 1.510825004591027855E-30, 1.000000000000000000, 4.327174794786742882E-16 ) ) ;
#31 = DIRECTION ( 'NONE',  ( 3.491481338843133355E-15, -1.224646799147353207E-16, 1.000000000000000000 ) ) ;
#32 = APPROVAL_STATUS ( 'not_yet_approved' ) ;
#33 = PERSON_AND_ORGANIZATION ( #39, #235 ) ;
#34 = PERSON_AND_ORGANIZATION ( #39, #235 ) ;
#35 = AXIS2_PLACEMENT_3D ( 'NONE', #196, #28, #88 ) ;
#36 = APPROVAL ( #201, 'UNSPECIFIED' ) ;
#37 = ADVANCED_FACE ( 'NONE', ( #159 ), #41, .T. ) ;
#38 = DATE_AND_TIME ( #120, #148 ) ;
#39 = PERSON ( 'UNSPECIFIED', 'UNSPECIFIED', 'UNSPECIFIED', ('UNSPECIFIED'), ('UNSPECIFIED'), ('UNSPECIFIED') ) ;
#40 = APPROVAL_STATUS ( 'not_yet_approved' ) ;
#41 = CONICAL_SURFACE ( 'NONE', #59, 2.999999999999992450, 1.221730476396026610 ) ;
#42 = AXIS2_PLACEMENT_3D ( 'NONE', #70, #156, #129 ) ;
#43 = EDGE_LOOP ( 'NONE', ( #109 ) ) ;
#44 = EDGE_CURVE ( 'NONE', #3, #3, #142, .T. ) ;
#45 = VERTEX_POINT ( 'NONE', #6 ) ;
#46 = ORIENTED_EDGE ( 'NONE', *, *, #106, .T. ) ;
#47 = VERTEX_POINT ( 'NONE', #116 ) ;
#48 = VERTEX_POINT ( 'NONE', #133 ) ;
#49 =( NAMED_UNIT ( * ) PLANE_ANGLE_UNIT ( ) SI_UNIT ( $, .RADIAN. ) );
#50 = ORIENTED_EDGE ( 'NONE', *, *, #102, .T. ) ;
#51 = CIRCLE ( 'NONE', #117, 2.350000000000010747 ) ;
#52 = CALENDAR_DATE ( 2021, 13, 10 ) ;
#53 = DIRECTION ( 'NONE',  ( -5.135813185032641787E-31, -1.000000000000000000, -1.445602896647342861E-16 ) ) ;
#54 = APPROVAL ( #40, 'UNSPECIFIED' ) ;
#55 =( NAMED_UNIT ( * ) SI_UNIT ( $, .STERADIAN. ) SOLID_ANGLE_UNIT ( ) );
#56 = APPROVAL_DATE_TIME ( #38, #54 ) ;
#57 = PERSON_AND_ORGANIZATION_ROLE ( 'classification_officer' ) ;
#58 = DIRECTION ( 'NONE',  ( -3.491481338843133355E-15, 4.327174794786742882E-16, -1.000000000000000000 ) ) ;
#59 = AXIS2_PLACEMENT_3D ( 'NONE', #121, #180, #53 ) ;
#60 = CYLINDRICAL_SURFACE ( 'NONE', #205, 2.999999999999998668 ) ;
#61 = AXIS2_PLACEMENT_3D ( 'NONE', #71, #139, #218 ) ;
#62 = CARTESIAN_POINT ( 'NONE',  ( 0.0000000000000000000, 0.0000000000000000000, 0.0000000000000000000 ) ) ;
#63 = ORIENTED_EDGE ( 'NONE', *, *, #220, .T. ) ;
#64 = FACE_OUTER_BOUND ( 'NONE', #187, .T. ) ;
#65 = MANIFOLD_SOLID_BREP ( 'Corps-Déplacer/Copier1[1]', #107 ) ;
#66 = ORIENTED_EDGE ( 'NONE', *, *, #24, .F. ) ;
#67 = CARTESIAN_POINT ( 'NONE',  ( 0.0000000000000000000, 0.0000000000000000000, 0.0000000000000000000 ) ) ;
#68 = ORIENTED_EDGE ( 'NONE', *, *, #214, .F. ) ;
#69 = AXIS2_PLACEMENT_3D ( 'NONE', #67, #29, #189 ) ;
#70 = CARTESIAN_POINT ( 'NONE',  ( 1.068393289685998933E-13, 2.249639673992777654E-32, 30.60000000000000142 ) ) ;
#71 = CARTESIAN_POINT ( 'NONE',  ( 2.733829888314172723E-13, -9.588984437323771882E-15, 78.29999999999998295 ) ) ;
#72 = EDGE_CURVE ( 'NONE', #171, #171, #163, .T. ) ;
#73 = FACE_OUTER_BOUND ( 'NONE', #131, .T. ) ;
#74 = AXIS2_PLACEMENT_3D ( 'NONE', #105, #261, #165 ) ;
#75 = APPROVAL_DATE_TIME ( #12, #143 ) ;
#76 = ADVANCED_FACE ( 'NONE', ( #25, #203 ), #60, .T. ) ;
#77 = PERSON_AND_ORGANIZATION ( #39, #235 ) ;
#78 = ORIENTED_EDGE ( 'NONE', *, *, #44, .F. ) ;
#79 = MECHANICAL_CONTEXT ( 'NONE', #181, 'mechanical' ) ;
#80 = UNCERTAINTY_MEASURE_WITH_UNIT (LENGTH_MEASURE( 1.000000000000000082E-05 ), #176, 'distance_accuracy_value', 'NONE');
#81 = COORDINATED_UNIVERSAL_TIME_OFFSET ( 1, 0, .AHEAD. ) ;
#82 = CIRCLE ( 'NONE', #188, 2.483974596215573261 ) ;
#83 = APPROVAL_ROLE ( '' ) ;
#84 = DIRECTION ( 'NONE',  ( -3.491481338843133355E-15, 1.224646799147353207E-16, -1.000000000000000000 ) ) ;
#85 = EDGE_LOOP ( 'NONE', ( #89 ) ) ;
#86 = LOCAL_TIME ( 14, 57, 3.000000000000000000, #124 ) ;
#87 = EDGE_LOOP ( 'NONE', ( #50 ) ) ;
#88 = DIRECTION ( 'NONE',  ( -4.917267943116334784E-31, -1.000000000000000000, -1.384087879768725666E-16 ) ) ;
#89 = ORIENTED_EDGE ( 'NONE', *, *, #24, .T. ) ;
#90 = PLANE ( 'NONE',  #20 ) ;
#91 = DIRECTION ( 'NONE',  ( -3.491481338843133355E-15, 1.224646799147353207E-16, -1.000000000000000000 ) ) ;
#92 = CIRCLE ( 'NONE', #23, 2.350000000000005862 ) ;
#93 = CC_DESIGN_PERSON_AND_ORGANIZATION_ASSIGNMENT ( #221, #158, ( #2 ) ) ;
#94 = PLANE ( 'NONE',  #130 ) ;
#95 = CARTESIAN_POINT ( 'NONE',  ( 1.068393289685998933E-13, 2.249639673992777654E-32, 30.60000000000000142 ) ) ;
#96 = FACE_OUTER_BOUND ( 'NONE', #1, .T. ) ;
#97 = ADVANCED_FACE ( 'NONE', ( #147, #246 ), #227, .T. ) ;
#98 = PRODUCT ( '960161', '960161', '', ( #79 ) ) ;
#99 = PERSON_AND_ORGANIZATION_ROLE ( 'creator' ) ;
#100 = APPROVAL_DATE_TIME ( #164, #36 ) ;
#101 = CC_DESIGN_DATE_AND_TIME_ASSIGNMENT ( #257, #144, ( #157 ) ) ;
#102 = EDGE_CURVE ( 'NONE', #47, #47, #217, .T. ) ;
#103 = COORDINATED_UNIVERSAL_TIME_OFFSET ( 1, 0, .AHEAD. ) ;
#104 = CC_DESIGN_APPROVAL ( #54, ( #198 ) ) ;
#105 = CARTESIAN_POINT ( 'NONE',  ( 1.068393289685998933E-13, -1.324115487204743417E-14, 30.60000000000000142 ) ) ;
#106 = EDGE_CURVE ( 'NONE', #45, #45, #82, .T. ) ;
#107 = CLOSED_SHELL ( 'NONE', ( #76, #236, #21, #251, #172, #225, #245 ) ) ;
#108 = AXIS2_PLACEMENT_3D ( 'NONE', #215, #183, #161 ) ;
#109 = ORIENTED_EDGE ( 'NONE', *, *, #125, .F. ) ;
#110 = CARTESIAN_POINT ( 'NONE',  ( 2.758270257686075477E-13, -9.674709713264090904E-15, 79.00000000000000000 ) ) ;
#111 = LOCAL_TIME ( 14, 57, 3.000000000000000000, #18 ) ;
#112 = ORIENTED_EDGE ( 'NONE', *, *, #214, .T. ) ;
#113 = CARTESIAN_POINT ( 'NONE',  ( 1.232492912611626011E-13, -1.517883041479706208E-14, 35.29999999999999716 ) ) ;
#114 = CARTESIAN_POINT ( 'NONE',  ( 1.281156558634545769E-13, -3.000000000000014655, 36.69378221735086498 ) ) ;
#115 = CC_DESIGN_DATE_AND_TIME_ASSIGNMENT ( #15, #17, ( #198 ) ) ;
#116 = CARTESIAN_POINT ( 'NONE',  ( 1.068393289685998933E-13, -2.350000000000019185, 30.60000000000000142 ) ) ;
#117 = AXIS2_PLACEMENT_3D ( 'NONE', #14, #253, #7 ) ;
#118 = FACE_BOUND ( 'NONE', #141, .T. ) ;
#119 = APPROVAL_ROLE ( '' ) ;
#120 = CALENDAR_DATE ( 2021, 13, 10 ) ;
#121 = CARTESIAN_POINT ( 'NONE',  ( 3.812385842504467288E-15, -1.337204947137065176E-16, 1.091910702798618571 ) ) ;
#122 = APPROVAL_PERSON_ORGANIZATION ( #77, #36, #83 ) ;
#123 = COORDINATED_UNIVERSAL_TIME_OFFSET ( 1, 0, .AHEAD. ) ;
#124 = COORDINATED_UNIVERSAL_TIME_OFFSET ( 1, 0, .AHEAD. ) ;
#125 = EDGE_CURVE ( 'NONE', #174, #174, #92, .T. ) ;
#126 = EDGE_LOOP ( 'NONE', ( #112 ) ) ;
#127 = APPLICATION_CONTEXT ( 'configuration controlled 3d designs of mechanical parts and assemblies' ) ;
#128 = DIRECTION ( 'NONE',  ( 0.0000000000000000000, 1.000000000000000000, 0.0000000000000000000 ) ) ;
#129 = DIRECTION ( 'NONE',  ( -4.275831445896958607E-31, -1.000000000000000000, -1.224646799147353207E-16 ) ) ;
#130 = AXIS2_PLACEMENT_3D ( 'NONE', #238, #134, #9 ) ;
#131 = EDGE_LOOP ( 'NONE', ( #210 ) ) ;
#132 = CYLINDRICAL_SURFACE ( 'NONE', #69, 2.350000000000005862 ) ;
#133 = CARTESIAN_POINT ( 'NONE',  ( 2.758270257686075477E-13, 2.299999999999992273, 79.00000000000000000 ) ) ;
#134 = DIRECTION ( 'NONE',  ( -3.491481338843133355E-15, 1.224646799147353207E-16, -1.000000000000000000 ) ) ;
#135 = FACE_OUTER_BOUND ( 'NONE', #233, .T. ) ;
#136 = ORIENTED_EDGE ( 'NONE', *, *, #72, .T. ) ;
#137 = CALENDAR_DATE ( 2021, 13, 10 ) ;
#138 = PERSON_AND_ORGANIZATION ( #39, #235 ) ;
#139 = DIRECTION ( 'NONE',  ( -3.491481338843133355E-15, 1.224646799147353207E-16, -1.000000000000000000 ) ) ;
#140 = APPROVAL_ROLE ( '' ) ;
#141 = EDGE_LOOP ( 'NONE', ( #177 ) ) ;
#142 = CIRCLE ( 'NONE', #61, 3.000000000000001332 ) ;
#143 = APPROVAL ( #32, 'UNSPECIFIED' ) ;
#144 = DATE_TIME_ROLE ( 'classification_date' ) ;
#145 = CONICAL_SURFACE ( 'NONE', #175, 3.500000000000013323, 0.5235987755982992597 ) ;
#146 = ADVANCED_BREP_SHAPE_REPRESENTATION ( '960161', ( #65, #155, #19 ), #195 ) ;
#147 = FACE_OUTER_BOUND ( 'NONE', #87, .T. ) ;
#148 = LOCAL_TIME ( 14, 57, 3.000000000000000000, #103 ) ;
#149 = EDGE_LOOP ( 'NONE', ( #68 ) ) ;
#150 = VERTEX_POINT ( 'NONE', #151 ) ;
#151 = CARTESIAN_POINT ( 'NONE',  ( 1.232492912611626011E-13, 2.349999999999995648, 35.29999999999999716 ) ) ;
#152 = EDGE_LOOP ( 'NONE', ( #63 ) ) ;
#153 = FACE_OUTER_BOUND ( 'NONE', #249, .T. ) ;
#154 = DIRECTION ( 'NONE',  ( 3.491481338843133355E-15, -4.327174794786742882E-16, 1.000000000000000000 ) ) ;
#155 = MANIFOLD_SOLID_BREP ( 'Corps-Déplacer/Copier1[2]', #222 ) ;
#156 = DIRECTION ( 'NONE',  ( 3.491481338843133355E-15, -1.224646799147353207E-16, 1.000000000000000000 ) ) ;
#157 = SECURITY_CLASSIFICATION ( '', '', #162 ) ;
#158 = PERSON_AND_ORGANIZATION_ROLE ( 'design_supplier' ) ;
#159 = FACE_OUTER_BOUND ( 'NONE', #126, .T. ) ;
#160 = PRODUCT_DEFINITION_SHAPE ( 'NONE', 'NONE',  #198 ) ;
#161 = DIRECTION ( 'NONE',  ( 0.0000000000000000000, -1.000000000000000000, 0.0000000000000000000 ) ) ;
#162 = SECURITY_CLASSIFICATION_LEVEL ( 'unclassified' ) ;
#163 = CIRCLE ( 'NONE', #108, 2.999999999999998668 ) ;
#164 = DATE_AND_TIME ( #137, #111 ) ;
#165 = DIRECTION ( 'NONE',  ( 0.0000000000000000000, -1.000000000000000000, 0.0000000000000000000 ) ) ;
#166 = CC_DESIGN_APPROVAL ( #143, ( #2 ) ) ;
#167 = DIRECTION ( 'NONE',  ( 4.275831445896958607E-31, 1.000000000000000000, 1.224646799147353454E-16 ) ) ;
#168 = APPROVAL_PERSON_ORGANIZATION ( #239, #54, #140 ) ;
#169 = AXIS2_PLACEMENT_3D ( 'NONE', #110, #91, #192 ) ;
#170 = ORIENTED_EDGE ( 'NONE', *, *, #102, .F. ) ;
#171 = VERTEX_POINT ( 'NONE', #114 ) ;
#172 = ADVANCED_FACE ( 'NONE', ( #118, #4 ), #145, .T. ) ;
#173 = DIRECTION ( 'NONE',  ( -3.491481338843133355E-15, 1.224646799147353207E-16, -1.000000000000000000 ) ) ;
#174 = VERTEX_POINT ( 'NONE', #252 ) ;
#175 = AXIS2_PLACEMENT_3D ( 'NONE', #213, #154, #209 ) ;
#176 =( LENGTH_UNIT ( ) NAMED_UNIT ( * ) SI_UNIT ( .MILLI., .METRE. ) );
#177 = ORIENTED_EDGE ( 'NONE', *, *, #106, .F. ) ;
#178 = DIRECTION ( 'NONE',  ( -4.275831445896958607E-31, -1.000000000000000000, -1.224646799147353207E-16 ) ) ;
#179 = APPLICATION_PROTOCOL_DEFINITION ( 'international standard', 'config_control_design', 1994, #127 ) ;
#180 = DIRECTION ( 'NONE',  ( 3.491481338843133355E-15, -1.224646799147353207E-16, 1.000000000000000000 ) ) ;
#181 = APPLICATION_CONTEXT ( 'configuration controlled 3d designs of mechanical parts and assemblies' ) ;
#182 = DIRECTION ( 'NONE',  ( 1.000000000000000000, 0.0000000000000000000, 0.0000000000000000000 ) ) ;
#183 = DIRECTION ( 'NONE',  ( 3.491481338843133355E-15, -4.327174794786742882E-16, 1.000000000000000000 ) ) ;
#184 = SHAPE_DEFINITION_REPRESENTATION ( #160, #146 ) ;
#185 = AXIS2_PLACEMENT_3D ( 'NONE', #62, #199, #22 ) ;
#186 = DIRECTION ( 'NONE',  ( 0.0000000000000000000, 0.0000000000000000000, 1.000000000000000000 ) ) ;
#187 = EDGE_LOOP ( 'NONE', ( #66 ) ) ;
#188 = AXIS2_PLACEMENT_3D ( 'NONE', #244, #58, #128 ) ;
#189 = DIRECTION ( 'NONE',  ( 1.510825004591028030E-30, 1.000000000000000000, 4.327174794786742882E-16 ) ) ;
#190 = EDGE_LOOP ( 'NONE', ( #5 ) ) ;
#191 = FACE_OUTER_BOUND ( 'NONE', #207, .T. ) ;
#192 = DIRECTION ( 'NONE',  ( 0.0000000000000000000, 1.000000000000000000, 0.0000000000000000000 ) ) ;
#193 = EDGE_LOOP ( 'NONE', ( #136 ) ) ;
#194 = CARTESIAN_POINT ( 'NONE',  ( 2.986368909961846593E-15, -2.350000000000005862, 0.8553300505255885255 ) ) ;
#195 =( GEOMETRIC_REPRESENTATION_CONTEXT ( 3 ) GLOBAL_UNCERTAINTY_ASSIGNED_CONTEXT ( ( #80 ) ) GLOBAL_UNIT_ASSIGNED_CONTEXT ( ( #176, #49, #55 ) ) REPRESENTATION_CONTEXT ( 'NONE', 'WORKASPACE' ) );
#196 = CARTESIAN_POINT ( 'NONE',  ( 2.986368909961847777E-15, -1.047477208590706400E-16, 0.8553300505255888586 ) ) ;
#197 = CALENDAR_DATE ( 2021, 13, 10 ) ;
#198 = PRODUCT_DEFINITION ( 'UNKNOWN', '', #2, #241 ) ;
#199 = DIRECTION ( 'NONE',  ( -3.491481338843133355E-15, 4.327174794786742882E-16, -1.000000000000000000 ) ) ;
#200 = CARTESIAN_POINT ( 'NONE',  ( 0.0000000000000000000, 0.0000000000000000000, 0.0000000000000000000 ) ) ;
#201 = APPROVAL_STATUS ( 'not_yet_approved' ) ;
#202 = APPROVAL_PERSON_ORGANIZATION ( #258, #143, #119 ) ;
#203 = FACE_OUTER_BOUND ( 'NONE', #190, .T. ) ;
#204 = CC_DESIGN_PERSON_AND_ORGANIZATION_ASSIGNMENT ( #33, #242, ( #98 ) ) ;
#205 = AXIS2_PLACEMENT_3D ( 'NONE', #263, #84, #167 ) ;
#206 = DIRECTION ( 'NONE',  ( 0.0000000000000000000, 1.000000000000000000, 0.0000000000000000000 ) ) ;
#207 = EDGE_LOOP ( 'NONE', ( #170 ) ) ;
#208 = AXIS2_PLACEMENT_3D ( 'NONE', #113, #250, #30 ) ;
#209 = DIRECTION ( 'NONE',  ( 0.0000000000000000000, -1.000000000000000000, 0.0000000000000000000 ) ) ;
#210 = ORIENTED_EDGE ( 'NONE', *, *, #125, .T. ) ;
#211 = FACE_OUTER_BOUND ( 'NONE', #43, .T. ) ;
#212 = ORIENTED_EDGE ( 'NONE', *, *, #220, .F. ) ;
#213 = CARTESIAN_POINT ( 'NONE',  ( 1.311393673997321065E-13, -1.625278528352158279E-14, 37.55980762113533444 ) ) ;
#214 = EDGE_CURVE ( 'NONE', #230, #230, #256, .T. ) ;
#215 = CARTESIAN_POINT ( 'NONE',  ( 1.281156558634545769E-13, -1.587804095363146928E-14, 36.69378221735086498 ) ) ;
#216 = FACE_BOUND ( 'NONE', #152, .T. ) ;
#217 = CIRCLE ( 'NONE', #74, 2.350000000000005862 ) ;
#218 = DIRECTION ( 'NONE',  ( 0.0000000000000000000, 1.000000000000000000, 0.0000000000000000000 ) ) ;
#219 = PRODUCT_RELATED_PRODUCT_CATEGORY ( 'detail', '', ( #98 ) ) ;
#220 = EDGE_CURVE ( 'NONE', #48, #48, #13, .T. ) ;
#221 = PERSON_AND_ORGANIZATION ( #39, #235 ) ;
#222 = CLOSED_SHELL ( 'NONE', ( #37, #97, #243 ) ) ;
#223 = AXIS2_PLACEMENT_3D ( 'NONE', #232, #254, #206 ) ;
#224 = LOCAL_TIME ( 14, 57, 3.000000000000000000, #81 ) ;
#225 = ADVANCED_FACE ( 'NONE', ( #64, #135 ), #240, .F. ) ;
#226 = ORIENTED_EDGE ( 'NONE', *, *, #72, .F. ) ;
#227 = CYLINDRICAL_SURFACE ( 'NONE', #185, 2.350000000000005862 ) ;
#228 = PLANE ( 'NONE',  #42 ) ;
#229 = CARTESIAN_POINT ( 'NONE',  ( 2.733829888314172723E-13, 2.999999999999992006, 78.29999999999998295 ) ) ;
#230 = VERTEX_POINT ( 'NONE', #194 ) ;
#231 = CC_DESIGN_PERSON_AND_ORGANIZATION_ASSIGNMENT ( #255, #237, ( #198 ) ) ;
#232 = CARTESIAN_POINT ( 'NONE',  ( 2.758270257686075477E-13, -9.674709713264090904E-15, 79.00000000000000000 ) ) ;
#233 = EDGE_LOOP ( 'NONE', ( #46 ) ) ;
#234 = FACE_OUTER_BOUND ( 'NONE', #85, .T. ) ;
#235 = ORGANIZATION ( 'UNSPECIFIED', 'UNSPECIFIED', '' ) ;
#236 = ADVANCED_FACE ( 'NONE', ( #153, #216 ), #8, .T. ) ;
#237 = PERSON_AND_ORGANIZATION_ROLE ( 'creator' ) ;
#238 = CARTESIAN_POINT ( 'NONE',  ( 2.758270257686075477E-13, 1.724723750061123112E-32, 79.00000000000000000 ) ) ;
#239 = PERSON_AND_ORGANIZATION ( #39, #235 ) ;
#240 = TOROIDAL_SURFACE ( 'NONE', #208, 3.350000000000010747, 0.9999999999999995559 ) ;
#241 = DESIGN_CONTEXT ( 'detailed design', #127, 'design' ) ;
#242 = PERSON_AND_ORGANIZATION_ROLE ( 'design_owner' ) ;
#243 = ADVANCED_FACE ( 'NONE', ( #191 ), #90, .T. ) ;
#244 = CARTESIAN_POINT ( 'NONE',  ( 1.249950319305841615E-13, -1.549128576533654078E-14, 35.79999999999999716 ) ) ;
#245 = ADVANCED_FACE ( 'NONE', ( #73 ), #228, .F. ) ;
#246 = FACE_OUTER_BOUND ( 'NONE', #149, .T. ) ;
#247 = LOCAL_TIME ( 14, 57, 3.000000000000000000, #123 ) ;
#248 = DIRECTION ( 'NONE',  ( 0.0000000000000000000, -1.000000000000000000, 0.0000000000000000000 ) ) ;
#249 = EDGE_LOOP ( 'NONE', ( #78 ) ) ;
#250 = DIRECTION ( 'NONE',  ( -3.491481338843133355E-15, 4.327174794786742882E-16, -1.000000000000000000 ) ) ;
#251 = ADVANCED_FACE ( 'NONE', ( #234, #211 ), #132, .T. ) ;
#252 = CARTESIAN_POINT ( 'NONE',  ( 1.068393289685998933E-13, -2.350000000000019185, 30.60000000000000142 ) ) ;
#253 = DIRECTION ( 'NONE',  ( -3.491481338843133355E-15, 4.327174794786742882E-16, -1.000000000000000000 ) ) ;
#254 = DIRECTION ( 'NONE',  ( -3.491481338843133355E-15, 1.224646799147353207E-16, -1.000000000000000000 ) ) ;
#255 = PERSON_AND_ORGANIZATION ( #39, #235 ) ;
#256 = CIRCLE ( 'NONE', #35, 2.350000000000005862 ) ;
#257 = DATE_AND_TIME ( #52, #224 ) ;
#258 = PERSON_AND_ORGANIZATION ( #39, #235 ) ;
#259 = CC_DESIGN_PERSON_AND_ORGANIZATION_ASSIGNMENT ( #34, #57, ( #157 ) ) ;
#260 = CALENDAR_DATE ( 2021, 13, 10 ) ;
#261 = DIRECTION ( 'NONE',  ( -3.491481338843133355E-15, 1.224646799147353207E-16, -1.000000000000000000 ) ) ;
#262 = CC_DESIGN_SECURITY_CLASSIFICATION ( #157, ( #2 ) ) ;
#263 = CARTESIAN_POINT ( 'NONE',  ( 0.0000000000000000000, 0.0000000000000000000, 0.0000000000000000000 ) ) ;
ENDSEC;
END-ISO-10303-21;
