ISO-10303-21;
HEADER;
FILE_DESCRIPTION (( 'STEP AP203' ),
    '1' );
FILE_NAME ('960160.step',
    '2021-10-13T12:57:02',
    ( '' ),
    ( '' ),
    'SwSTEP 2.0',
    'SolidWorks 2019',
    '' );
FILE_SCHEMA (( 'CONFIG_CONTROL_DESIGN' ));
ENDSEC;

DATA;
#1 =( NAMED_UNIT ( * ) SI_UNIT ( $, .STERADIAN. ) SOLID_ANGLE_UNIT ( ) );
#2 = CC_DESIGN_PERSON_AND_ORGANIZATION_ASSIGNMENT ( #68, #102, ( #230 ) ) ;
#3 = VERTEX_POINT ( 'NONE', #243 ) ;
#4 = CARTESIAN_POINT ( 'NONE',  ( 2.922829145920104446E-15, -2.300000000000005151, 0.8371315388122779755 ) ) ;
#5 = VERTEX_POINT ( 'NONE', #222 ) ;
#6 = AXIS2_PLACEMENT_3D ( 'NONE', #58, #176, #36 ) ;
#7 = VERTEX_POINT ( 'NONE', #183 ) ;
#8 = ORIENTED_EDGE ( 'NONE', *, *, #177, .T. ) ;
#9 = APPROVAL_DATE_TIME ( #165, #89 ) ;
#10 = AXIS2_PLACEMENT_3D ( 'NONE', #207, #224, #97 ) ;
#11 = ADVANCED_FACE ( 'NONE', ( #77, #41 ), #173, .T. ) ;
#12 = CALENDAR_DATE ( 2021, 13, 10 ) ;
#13 = ORIENTED_EDGE ( 'NONE', *, *, #78, .T. ) ;
#14 = CLOSED_SHELL ( 'NONE', ( #242, #187, #129, #11, #223, #21, #65 ) ) ;
#15 = DIRECTION ( 'NONE',  ( -3.491481338843133355E-15, 1.224646799147353207E-16, -1.000000000000000000 ) ) ;
#16 = EDGE_LOOP ( 'NONE', ( #253 ) ) ;
#17 = DIRECTION ( 'NONE',  ( 0.0000000000000000000, 1.000000000000000000, 0.0000000000000000000 ) ) ;
#18 = CIRCLE ( 'NONE', #162, 3.000000000000001332 ) ;
#19 = CARTESIAN_POINT ( 'NONE',  ( 1.043952920314096810E-13, -1.293825263641236185E-14, 29.89999999999999858 ) ) ;
#20 = CARTESIAN_POINT ( 'NONE',  ( 1.043952920314096810E-13, 2.249639673992777927E-32, 29.89999999999999858 ) ) ;
#21 = ADVANCED_FACE ( 'NONE', ( #234, #135 ), #74, .F. ) ;
#22 = CC_DESIGN_APPROVAL ( #30, ( #180 ) ) ;
#23 = DIRECTION ( 'NONE',  ( -5.024165072314516851E-31, -1.000000000000000000, -1.414176746720219949E-16 ) ) ;
#24 = APPLICATION_PROTOCOL_DEFINITION ( 'international standard', 'config_control_design', 1994, #240 ) ;
#25 = CARTESIAN_POINT ( 'NONE',  ( 1.256248419460078333E-13, -3.000000000000013767, 35.98038475772931832 ) ) ;
#26 = FACE_OUTER_BOUND ( 'NONE', #193, .T. ) ;
#27 = AXIS2_PLACEMENT_3D ( 'NONE', #47, #61, #117 ) ;
#28 = DATE_AND_TIME ( #170, #152 ) ;
#29 = PERSON_AND_ORGANIZATION ( #159, #84 ) ;
#30 = APPROVAL ( #64, 'UNSPECIFIED' ) ;
#31 = ORIENTED_EDGE ( 'NONE', *, *, #138, .T. ) ;
#32 = AXIS2_PLACEMENT_3D ( 'NONE', #181, #137, #203 ) ;
#33 = PERSON_AND_ORGANIZATION ( #159, #84 ) ;
#34 = COORDINATED_UNIVERSAL_TIME_OFFSET ( 1, 0, .AHEAD. ) ;
#35 = EDGE_CURVE ( 'NONE', #140, #140, #249, .T. ) ;
#36 = DIRECTION ( 'NONE',  ( 0.0000000000000000000, 1.000000000000000000, 0.0000000000000000000 ) ) ;
#37 = CC_DESIGN_APPROVAL ( #89, ( #113 ) ) ;
#38 = EDGE_LOOP ( 'NONE', ( #216 ) ) ;
#39 = FACE_OUTER_BOUND ( 'NONE', #38, .T. ) ;
#40 = AXIS2_PLACEMENT_3D ( 'NONE', #20, #259, #93 ) ;
#41 = FACE_OUTER_BOUND ( 'NONE', #227, .T. ) ;
#42 = CYLINDRICAL_SURFACE ( 'NONE', #27, 2.999999999999998224 ) ;
#43 = VERTEX_POINT ( 'NONE', #156 ) ;
#44 = CIRCLE ( 'NONE', #6, 2.300000000000001599 ) ;
#45 = CARTESIAN_POINT ( 'NONE',  ( 0.0000000000000000000, 0.0000000000000000000, 0.0000000000000000000 ) ) ;
#46 = FACE_OUTER_BOUND ( 'NONE', #82, .T. ) ;
#47 = CARTESIAN_POINT ( 'NONE',  ( 0.0000000000000000000, 0.0000000000000000000, 0.0000000000000000000 ) ) ;
#48 = AXIS2_PLACEMENT_3D ( 'NONE', #245, #185, #250 ) ;
#49 = CC_DESIGN_PERSON_AND_ORGANIZATION_ASSIGNMENT ( #100, #53, ( #113 ) ) ;
#50 = CALENDAR_DATE ( 2021, 13, 10 ) ;
#51 = ORIENTED_EDGE ( 'NONE', *, *, #35, .T. ) ;
#52 = EDGE_LOOP ( 'NONE', ( #54 ) ) ;
#53 = PERSON_AND_ORGANIZATION_ROLE ( 'creator' ) ;
#54 = ORIENTED_EDGE ( 'NONE', *, *, #182, .F. ) ;
#55 = DIRECTION ( 'NONE',  ( 1.510825004591027679E-30, 1.000000000000000000, 4.327174794786742882E-16 ) ) ;
#56 = DIRECTION ( 'NONE',  ( 0.0000000000000000000, -1.000000000000000000, 0.0000000000000000000 ) ) ;
#57 = AXIS2_PLACEMENT_3D ( 'NONE', #154, #238, #55 ) ;
#58 = CARTESIAN_POINT ( 'NONE',  ( 2.758270257686075477E-13, -9.674709713264090904E-15, 79.00000000000000000 ) ) ;
#59 = EDGE_LOOP ( 'NONE', ( #188 ) ) ;
#60 = AXIS2_PLACEMENT_3D ( 'NONE', #45, #115, #205 ) ;
#61 = DIRECTION ( 'NONE',  ( -3.491481338843133355E-15, 1.224646799147353207E-16, -1.000000000000000000 ) ) ;
#62 = VERTEX_POINT ( 'NONE', #4 ) ;
#63 = FACE_OUTER_BOUND ( 'NONE', #16, .T. ) ;
#64 = APPROVAL_STATUS ( 'not_yet_approved' ) ;
#65 = ADVANCED_FACE ( 'NONE', ( #178 ), #202, .F. ) ;
#66 = APPROVAL_ROLE ( '' ) ;
#67 = CIRCLE ( 'NONE', #257, 2.999999999999998224 ) ;
#68 = PERSON_AND_ORGANIZATION ( #159, #84 ) ;
#69 = COORDINATED_UNIVERSAL_TIME_OFFSET ( 1, 0, .AHEAD. ) ;
#70 = CONICAL_SURFACE ( 'NONE', #157, 3.500000000000013323, 0.5235987755982983716 ) ;
#71 = CARTESIAN_POINT ( 'NONE',  ( 1.256248419460078333E-13, -1.556934140303753931E-14, 35.98038475772931832 ) ) ;
#72 = CC_DESIGN_DATE_AND_TIME_ASSIGNMENT ( #83, #125, ( #113 ) ) ;
#73 = CARTESIAN_POINT ( 'NONE',  ( 2.758270257686075477E-13, 1.724723750061123112E-32, 79.00000000000000000 ) ) ;
#74 = TOROIDAL_SURFACE ( 'NONE', #231, 3.300000000000010481, 1.000000000000000000 ) ;
#75 = FACE_OUTER_BOUND ( 'NONE', #166, .T. ) ;
#76 = PLANE ( 'NONE',  #79 ) ;
#77 = FACE_OUTER_BOUND ( 'NONE', #59, .T. ) ;
#78 = EDGE_CURVE ( 'NONE', #7, #7, #44, .T. ) ;
#79 = AXIS2_PLACEMENT_3D ( 'NONE', #132, #196, #88 ) ;
#80 = CARTESIAN_POINT ( 'NONE',  ( 1.286485534822853881E-13, -1.594408573292765598E-14, 36.84641016151378778 ) ) ;
#81 = AXIS2_PLACEMENT_3D ( 'NONE', #175, #261, #219 ) ;
#82 = EDGE_LOOP ( 'NONE', ( #126 ) ) ;
#83 = DATE_AND_TIME ( #119, #118 ) ;
#84 = ORGANIZATION ( 'UNSPECIFIED', 'UNSPECIFIED', '' ) ;
#85 = PERSON_AND_ORGANIZATION ( #159, #84 ) ;
#86 = COORDINATED_UNIVERSAL_TIME_OFFSET ( 1, 0, .AHEAD. ) ;
#87 = EDGE_LOOP ( 'NONE', ( #192 ) ) ;
#88 = DIRECTION ( 'NONE',  ( -4.275831445896958607E-31, -1.000000000000000000, -1.224646799147353207E-16 ) ) ;
#89 = APPROVAL ( #186, 'UNSPECIFIED' ) ;
#90 = DIRECTION ( 'NONE',  ( 0.0000000000000000000, 1.000000000000000000, 0.0000000000000000000 ) ) ;
#91 = FACE_BOUND ( 'NONE', #211, .T. ) ;
#92 =( GEOMETRIC_REPRESENTATION_CONTEXT ( 3 ) GLOBAL_UNCERTAINTY_ASSIGNED_CONTEXT ( ( #127 ) ) GLOBAL_UNIT_ASSIGNED_CONTEXT ( ( #164, #95, #1 ) ) REPRESENTATION_CONTEXT ( 'NONE', 'WORKASPACE' ) );
#93 = DIRECTION ( 'NONE',  ( -4.275831445896958607E-31, -1.000000000000000000, -1.224646799147353207E-16 ) ) ;
#94 = ORIENTED_EDGE ( 'NONE', *, *, #226, .F. ) ;
#95 =( NAMED_UNIT ( * ) PLANE_ANGLE_UNIT ( ) SI_UNIT ( $, .RADIAN. ) );
#96 = MECHANICAL_CONTEXT ( 'NONE', #240, 'mechanical' ) ;
#97 = DIRECTION ( 'NONE',  ( 1.510825004591027679E-30, 1.000000000000000000, 4.327174794786742882E-16 ) ) ;
#98 = CIRCLE ( 'NONE', #48, 2.433974596215572994 ) ;
#99 = PERSON_AND_ORGANIZATION_ROLE ( 'classification_officer' ) ;
#100 = PERSON_AND_ORGANIZATION ( #159, #84 ) ;
#101 = EDGE_LOOP ( 'NONE', ( #51 ) ) ;
#102 = PERSON_AND_ORGANIZATION_ROLE ( 'design_owner' ) ;
#103 = APPROVAL_PERSON_ORGANIZATION ( #149, #229, #66 ) ;
#104 = DATE_AND_TIME ( #12, #260 ) ;
#105 = SECURITY_CLASSIFICATION_LEVEL ( 'unclassified' ) ;
#106 = ADVANCED_FACE ( 'NONE', ( #107 ), #76, .T. ) ;
#107 = FACE_OUTER_BOUND ( 'NONE', #263, .T. ) ;
#108 = DIRECTION ( 'NONE',  ( 4.275831445896958607E-31, 1.000000000000000000, 1.224646799147353207E-16 ) ) ;
#109 = DIRECTION ( 'NONE',  ( -3.491481338843133355E-15, 1.224646799147353207E-16, -1.000000000000000000 ) ) ;
#110 = ORIENTED_EDGE ( 'NONE', *, *, #158, .F. ) ;
#111 = AXIS2_PLACEMENT_3D ( 'NONE', #19, #109, #112 ) ;
#112 = DIRECTION ( 'NONE',  ( 0.0000000000000000000, -1.000000000000000000, 0.0000000000000000000 ) ) ;
#113 = PRODUCT_DEFINITION ( 'UNKNOWN', '', #180, #150 ) ;
#114 = SECURITY_CLASSIFICATION ( '', '', #105 ) ;
#115 = DIRECTION ( 'NONE',  ( 0.0000000000000000000, 0.0000000000000000000, 1.000000000000000000 ) ) ;
#116 = CARTESIAN_POINT ( 'NONE',  ( 1.043952920314096810E-13, -2.300000000000018030, 29.89999999999999858 ) ) ;
#117 = DIRECTION ( 'NONE',  ( 4.275831445896958607E-31, 1.000000000000000000, 1.224646799147353454E-16 ) ) ;
#118 = LOCAL_TIME ( 14, 57, 2.000000000000000000, #86 ) ;
#119 = CALENDAR_DATE ( 2021, 13, 10 ) ;
#120 = ORIENTED_EDGE ( 'NONE', *, *, #35, .F. ) ;
#121 = PRODUCT_DEFINITION_SHAPE ( 'NONE', 'NONE',  #113 ) ;
#122 = CALENDAR_DATE ( 2021, 13, 10 ) ;
#123 = PRODUCT_RELATED_PRODUCT_CATEGORY ( 'detail', '', ( #230 ) ) ;
#124 = ORIENTED_EDGE ( 'NONE', *, *, #78, .F. ) ;
#125 = DATE_TIME_ROLE ( 'creation_date' ) ;
#126 = ORIENTED_EDGE ( 'NONE', *, *, #251, .T. ) ;
#127 = UNCERTAINTY_MEASURE_WITH_UNIT (LENGTH_MEASURE( 1.000000000000000082E-05 ), #164, 'distance_accuracy_value', 'NONE');
#128 = DATE_AND_TIME ( #122, #131 ) ;
#129 = ADVANCED_FACE ( 'NONE', ( #239 ), #199, .F. ) ;
#130 = DIRECTION ( 'NONE',  ( -3.491481338843133355E-15, 4.327174794786742882E-16, -1.000000000000000000 ) ) ;
#131 = LOCAL_TIME ( 14, 57, 2.000000000000000000, #69 ) ;
#132 = CARTESIAN_POINT ( 'NONE',  ( 1.043952920314096810E-13, 2.249639673992777927E-32, 29.89999999999999858 ) ) ;
#133 = CARTESIAN_POINT ( 'NONE',  ( 1.204561061900881197E-13, -1.474514954580286030E-14, 34.50000000000000000 ) ) ;
#134 = CARTESIAN_POINT ( 'NONE',  ( 2.733829888314172723E-13, -9.588984437323771882E-15, 78.29999999999998295 ) ) ;
#135 = FACE_OUTER_BOUND ( 'NONE', #190, .T. ) ;
#136 = CIRCLE ( 'NONE', #171, 2.300000000000005151 ) ;
#137 = DIRECTION ( 'NONE',  ( 3.491481338843133355E-15, -1.224646799147353207E-16, 1.000000000000000000 ) ) ;
#138 = EDGE_CURVE ( 'NONE', #43, #43, #200, .T. ) ;
#139 = FACE_OUTER_BOUND ( 'NONE', #87, .T. ) ;
#140 = VERTEX_POINT ( 'NONE', #116 ) ;
#141 = CC_DESIGN_APPROVAL ( #229, ( #114 ) ) ;
#142 = DIRECTION ( 'NONE',  ( 0.0000000000000000000, -1.000000000000000000, 0.0000000000000000000 ) ) ;
#143 = FACE_BOUND ( 'NONE', #201, .T. ) ;
#144 = APPLICATION_CONTEXT ( 'configuration controlled 3d designs of mechanical parts and assemblies' ) ;
#145 = ADVANCED_BREP_SHAPE_REPRESENTATION ( '960160', ( #246, #235, #60 ), #92 ) ;
#146 = PERSON_AND_ORGANIZATION_ROLE ( 'creator' ) ;
#147 = DATE_TIME_ROLE ( 'classification_date' ) ;
#148 = CLOSED_SHELL ( 'NONE', ( #210, #206, #106 ) ) ;
#149 = PERSON_AND_ORGANIZATION ( #159, #84 ) ;
#150 = DESIGN_CONTEXT ( 'detailed design', #144, 'design' ) ;
#151 = DIRECTION ( 'NONE',  ( 3.491481338843133355E-15, -4.327174794786742882E-16, 1.000000000000000000 ) ) ;
#152 = LOCAL_TIME ( 14, 57, 2.000000000000000000, #255 ) ;
#153 = FACE_OUTER_BOUND ( 'NONE', #213, .T. ) ;
#154 = CARTESIAN_POINT ( 'NONE',  ( 0.0000000000000000000, 0.0000000000000000000, 0.0000000000000000000 ) ) ;
#155 = DIRECTION ( 'NONE',  ( 0.0000000000000000000, -1.000000000000000000, 0.0000000000000000000 ) ) ;
#156 = CARTESIAN_POINT ( 'NONE',  ( 1.043952920314096810E-13, -2.300000000000018030, 29.89999999999999858 ) ) ;
#157 = AXIS2_PLACEMENT_3D ( 'NONE', #80, #225, #142 ) ;
#158 = EDGE_CURVE ( 'NONE', #3, #3, #18, .T. ) ;
#159 = PERSON ( 'UNSPECIFIED', 'UNSPECIFIED', 'UNSPECIFIED', ('UNSPECIFIED'), ('UNSPECIFIED'), ('UNSPECIFIED') ) ;
#160 = VERTEX_POINT ( 'NONE', #25 ) ;
#161 = CARTESIAN_POINT ( 'NONE',  ( 2.922829145920105630E-15, -1.025190459471755014E-16, 0.8371315388122783085 ) ) ;
#162 = AXIS2_PLACEMENT_3D ( 'NONE', #134, #172, #90 ) ;
#163 = CC_DESIGN_SECURITY_CLASSIFICATION ( #114, ( #180 ) ) ;
#164 =( LENGTH_UNIT ( ) NAMED_UNIT ( * ) SI_UNIT ( .MILLI., .METRE. ) );
#165 = DATE_AND_TIME ( #50, #237 ) ;
#166 = EDGE_LOOP ( 'NONE', ( #31 ) ) ;
#167 = AXIS2_PLACEMENT_3D ( 'NONE', #218, #197, #17 ) ;
#168 = PERSON_AND_ORGANIZATION ( #159, #84 ) ;
#169 = EDGE_LOOP ( 'NONE', ( #124 ) ) ;
#170 = CALENDAR_DATE ( 2021, 13, 10 ) ;
#171 = AXIS2_PLACEMENT_3D ( 'NONE', #161, #208, #23 ) ;
#172 = DIRECTION ( 'NONE',  ( -3.491481338843133355E-15, 1.224646799147353207E-16, -1.000000000000000000 ) ) ;
#173 = CYLINDRICAL_SURFACE ( 'NONE', #57, 2.300000000000005151 ) ;
#174 = CC_DESIGN_PERSON_AND_ORGANIZATION_ASSIGNMENT ( #33, #99, ( #114 ) ) ;
#175 = CARTESIAN_POINT ( 'NONE',  ( 2.758270257686075477E-13, -9.674709713264090904E-15, 79.00000000000000000 ) ) ;
#176 = DIRECTION ( 'NONE',  ( -3.491481338843133355E-15, 1.224646799147353207E-16, -1.000000000000000000 ) ) ;
#177 = EDGE_CURVE ( 'NONE', #160, #160, #67, .T. ) ;
#178 = FACE_OUTER_BOUND ( 'NONE', #101, .T. ) ;
#179 = VERTEX_POINT ( 'NONE', #247 ) ;
#180 = PRODUCT_DEFINITION_FORMATION_WITH_SPECIFIED_SOURCE ( 'ANY', '', #230, .NOT_KNOWN. ) ;
#181 = CARTESIAN_POINT ( 'NONE',  ( 3.812385842504467288E-15, -1.337204947137065176E-16, 1.091910702798618571 ) ) ;
#182 = EDGE_CURVE ( 'NONE', #5, #5, #184, .T. ) ;
#183 = CARTESIAN_POINT ( 'NONE',  ( 2.758270257686075477E-13, 2.299999999999992273, 79.00000000000000000 ) ) ;
#184 = CIRCLE ( 'NONE', #167, 2.300000000000010036 ) ;
#185 = DIRECTION ( 'NONE',  ( -3.491481338843133355E-15, 4.327174794786742882E-16, -1.000000000000000000 ) ) ;
#186 = APPROVAL_STATUS ( 'not_yet_approved' ) ;
#187 = ADVANCED_FACE ( 'NONE', ( #153, #91 ), #204, .T. ) ;
#188 = ORIENTED_EDGE ( 'NONE', *, *, #182, .T. ) ;
#189 = APPROVAL_DATE_TIME ( #104, #229 ) ;
#190 = EDGE_LOOP ( 'NONE', ( #221 ) ) ;
#191 = PERSON_AND_ORGANIZATION_ROLE ( 'design_supplier' ) ;
#192 = ORIENTED_EDGE ( 'NONE', *, *, #177, .F. ) ;
#193 = EDGE_LOOP ( 'NONE', ( #8 ) ) ;
#194 = CC_DESIGN_DATE_AND_TIME_ASSIGNMENT ( #28, #147, ( #114 ) ) ;
#195 = SHAPE_DEFINITION_REPRESENTATION ( #121, #145 ) ;
#196 = DIRECTION ( 'NONE',  ( 3.491481338843133355E-15, -1.224646799147353207E-16, 1.000000000000000000 ) ) ;
#197 = DIRECTION ( 'NONE',  ( -3.491481338843133355E-15, 4.327174794786742882E-16, -1.000000000000000000 ) ) ;
#198 = CC_DESIGN_PERSON_AND_ORGANIZATION_ASSIGNMENT ( #85, #191, ( #180 ) ) ;
#199 = PLANE ( 'NONE',  #217 ) ;
#200 = CIRCLE ( 'NONE', #248, 2.300000000000005151 ) ;
#201 = EDGE_LOOP ( 'NONE', ( #94 ) ) ;
#202 = PLANE ( 'NONE',  #40 ) ;
#203 = DIRECTION ( 'NONE',  ( -5.135813185032641787E-31, -1.000000000000000000, -1.445602896647342861E-16 ) ) ;
#204 = CONICAL_SURFACE ( 'NONE', #81, 2.300000000000001599, 0.7853981633974337351 ) ;
#205 = DIRECTION ( 'NONE',  ( 1.000000000000000000, 0.0000000000000000000, 0.0000000000000000000 ) ) ;
#206 = ADVANCED_FACE ( 'NONE', ( #75, #39 ), #241, .T. ) ;
#207 = CARTESIAN_POINT ( 'NONE',  ( 0.0000000000000000000, 0.0000000000000000000, 0.0000000000000000000 ) ) ;
#208 = DIRECTION ( 'NONE',  ( -3.491481338843133355E-15, 1.224646799147353207E-16, -1.000000000000000000 ) ) ;
#209 = APPROVAL_PERSON_ORGANIZATION ( #29, #89, #252 ) ;
#210 = ADVANCED_FACE ( 'NONE', ( #46 ), #220, .T. ) ;
#211 = EDGE_LOOP ( 'NONE', ( #13 ) ) ;
#212 = APPLICATION_PROTOCOL_DEFINITION ( 'international standard', 'config_control_design', 1994, #144 ) ;
#213 = EDGE_LOOP ( 'NONE', ( #110 ) ) ;
#214 = PERSON_AND_ORGANIZATION ( #159, #84 ) ;
#215 = APPROVAL_STATUS ( 'not_yet_approved' ) ;
#216 = ORIENTED_EDGE ( 'NONE', *, *, #251, .F. ) ;
#217 = AXIS2_PLACEMENT_3D ( 'NONE', #73, #15, #108 ) ;
#218 = CARTESIAN_POINT ( 'NONE',  ( 1.204561061900881197E-13, -1.492875304201426452E-14, 34.50000000000000000 ) ) ;
#219 = DIRECTION ( 'NONE',  ( 0.0000000000000000000, 1.000000000000000000, 0.0000000000000000000 ) ) ;
#220 = CONICAL_SURFACE ( 'NONE', #32, 2.999999999999992450, 1.221730476396026610 ) ;
#221 = ORIENTED_EDGE ( 'NONE', *, *, #226, .T. ) ;
#222 = CARTESIAN_POINT ( 'NONE',  ( 1.204561061900881197E-13, 2.299999999999995381, 34.50000000000000000 ) ) ;
#223 = ADVANCED_FACE ( 'NONE', ( #143, #139 ), #70, .T. ) ;
#224 = DIRECTION ( 'NONE',  ( -3.491481338843133355E-15, 4.327174794786742882E-16, -1.000000000000000000 ) ) ;
#225 = DIRECTION ( 'NONE',  ( 3.491481338843133355E-15, -4.327174794786742882E-16, 1.000000000000000000 ) ) ;
#226 = EDGE_CURVE ( 'NONE', #179, #179, #98, .T. ) ;
#227 = EDGE_LOOP ( 'NONE', ( #120 ) ) ;
#228 = APPROVAL_DATE_TIME ( #128, #30 ) ;
#229 = APPROVAL ( #215, 'UNSPECIFIED' ) ;
#230 = PRODUCT ( '960160', '960160', '', ( #96 ) ) ;
#231 = AXIS2_PLACEMENT_3D ( 'NONE', #133, #130, #258 ) ;
#232 = COORDINATED_UNIVERSAL_TIME_OFFSET ( 1, 0, .AHEAD. ) ;
#233 = ORIENTED_EDGE ( 'NONE', *, *, #138, .F. ) ;
#234 = FACE_OUTER_BOUND ( 'NONE', #52, .T. ) ;
#235 = MANIFOLD_SOLID_BREP ( 'Corps-Déplacer/Copier1[2]', #148 ) ;
#236 = DIRECTION ( 'NONE',  ( -3.491481338843133355E-15, 1.224646799147353207E-16, -1.000000000000000000 ) ) ;
#237 = LOCAL_TIME ( 14, 57, 2.000000000000000000, #232 ) ;
#238 = DIRECTION ( 'NONE',  ( -3.491481338843133355E-15, 4.327174794786742882E-16, -1.000000000000000000 ) ) ;
#239 = FACE_OUTER_BOUND ( 'NONE', #169, .T. ) ;
#240 = APPLICATION_CONTEXT ( 'configuration controlled 3d designs of mechanical parts and assemblies' ) ;
#241 = CYLINDRICAL_SURFACE ( 'NONE', #10, 2.300000000000005151 ) ;
#242 = ADVANCED_FACE ( 'NONE', ( #26, #63 ), #42, .T. ) ;
#243 = CARTESIAN_POINT ( 'NONE',  ( 2.733829888314172723E-13, 2.999999999999992006, 78.29999999999998295 ) ) ;
#244 = CC_DESIGN_PERSON_AND_ORGANIZATION_ASSIGNMENT ( #168, #146, ( #180 ) ) ;
#245 = CARTESIAN_POINT ( 'NONE',  ( 1.222018468595096801E-13, -1.514511178175360324E-14, 35.00000000000000000 ) ) ;
#246 = MANIFOLD_SOLID_BREP ( 'Corps-Déplacer/Copier1[1]', #14 ) ;
#247 = CARTESIAN_POINT ( 'NONE',  ( 1.222018468595096801E-13, 2.433974596215557451, 35.00000000000000000 ) ) ;
#248 = AXIS2_PLACEMENT_3D ( 'NONE', #262, #236, #155 ) ;
#249 = CIRCLE ( 'NONE', #111, 2.300000000000005151 ) ;
#250 = DIRECTION ( 'NONE',  ( 0.0000000000000000000, 1.000000000000000000, 0.0000000000000000000 ) ) ;
#251 = EDGE_CURVE ( 'NONE', #62, #62, #136, .T. ) ;
#252 = APPROVAL_ROLE ( '' ) ;
#253 = ORIENTED_EDGE ( 'NONE', *, *, #158, .T. ) ;
#254 = APPROVAL_PERSON_ORGANIZATION ( #214, #30, #256 ) ;
#255 = COORDINATED_UNIVERSAL_TIME_OFFSET ( 1, 0, .AHEAD. ) ;
#256 = APPROVAL_ROLE ( '' ) ;
#257 = AXIS2_PLACEMENT_3D ( 'NONE', #71, #151, #56 ) ;
#258 = DIRECTION ( 'NONE',  ( 1.510825004591027855E-30, 1.000000000000000000, 4.327174794786743375E-16 ) ) ;
#259 = DIRECTION ( 'NONE',  ( 3.491481338843133355E-15, -1.224646799147353207E-16, 1.000000000000000000 ) ) ;
#260 = LOCAL_TIME ( 14, 57, 2.000000000000000000, #34 ) ;
#261 = DIRECTION ( 'NONE',  ( -3.491481338843133355E-15, 1.224646799147353207E-16, -1.000000000000000000 ) ) ;
#262 = CARTESIAN_POINT ( 'NONE',  ( 1.043952920314096810E-13, -1.293825263641236185E-14, 29.89999999999999858 ) ) ;
#263 = EDGE_LOOP ( 'NONE', ( #233 ) ) ;
ENDSEC;
END-ISO-10303-21;
