ISO-10303-21;
HEADER;
FILE_DESCRIPTION (( 'STEP AP203' ),
    '1' );
FILE_NAME ('960159.step',
    '2021-10-13T12:57:02',
    ( '' ),
    ( '' ),
    'SwSTEP 2.0',
    'SolidWorks 2019',
    '' );
FILE_SCHEMA (( 'CONFIG_CONTROL_DESIGN' ));
ENDSEC;

DATA;
#1 = CIRCLE ( 'NONE', #40, 2.250000000000004885 ) ;
#2 = APPROVAL_PERSON_ORGANIZATION ( #145, #84, #81 ) ;
#3 = DATE_AND_TIME ( #64, #233 ) ;
#4 = ORIENTED_EDGE ( 'NONE', *, *, #71, .F. ) ;
#5 = LOCAL_TIME ( 14, 57, 2.000000000000000000, #188 ) ;
#6 = PERSON_AND_ORGANIZATION ( #144, #87 ) ;
#7 = PRODUCT_DEFINITION_FORMATION_WITH_SPECIFIED_SOURCE ( 'ANY', '', #44, .NOT_KNOWN. ) ;
#8 = ORIENTED_EDGE ( 'NONE', *, *, #257, .F. ) ;
#9 = EDGE_LOOP ( 'NONE', ( #4 ) ) ;
#10 = EDGE_LOOP ( 'NONE', ( #86 ) ) ;
#11 = DIRECTION ( 'NONE',  ( -4.275831445896958607E-31, -1.000000000000000000, -1.224646799147353207E-16 ) ) ;
#12 = DIRECTION ( 'NONE',  ( -3.491481338843133355E-15, 1.224646799147353207E-16, -1.000000000000000000 ) ) ;
#13 = EDGE_LOOP ( 'NONE', ( #48 ) ) ;
#14 = DIRECTION ( 'NONE',  ( -3.423875456688411947E-31, -1.000000000000000000, -1.445602896647336205E-16 ) ) ;
#15 = AXIS2_PLACEMENT_3D ( 'NONE', #261, #97, #263 ) ;
#16 =( NAMED_UNIT ( * ) SI_UNIT ( $, .STERADIAN. ) SOLID_ANGLE_UNIT ( ) );
#17 = DIRECTION ( 'NONE',  ( 0.0000000000000000000, 0.0000000000000000000, 1.000000000000000000 ) ) ;
#18 = CARTESIAN_POINT ( 'NONE',  ( 1.197578099223194552E-13, 2.383974596215558517, 34.29999999999999716 ) ) ;
#19 = DIRECTION ( 'NONE',  ( -3.491481338843133355E-15, 4.327174794786742882E-16, -1.000000000000000000 ) ) ;
#20 = CARTESIAN_POINT ( 'NONE',  ( 1.023004032281038010E-13, -2.250000000000017764, 29.30000000000000071 ) ) ;
#21 = EDGE_LOOP ( 'NONE', ( #68 ) ) ;
#22 = PRODUCT_DEFINITION ( 'UNKNOWN', '', #7, #125 ) ;
#23 = CALENDAR_DATE ( 2021, 13, 10 ) ;
#24 = APPROVAL_STATUS ( 'not_yet_approved' ) ;
#25 = EDGE_CURVE ( 'NONE', #158, #158, #58, .T. ) ;
#26 = FACE_BOUND ( 'NONE', #204, .T. ) ;
#27 = CARTESIAN_POINT ( 'NONE',  ( 2.733829888314172723E-13, -9.588984437323771882E-15, 78.29999999999998295 ) ) ;
#28 = CONICAL_SURFACE ( 'NONE', #163, 3.500000000000012879, 0.5235987755982985936 ) ;
#29 = CARTESIAN_POINT ( 'NONE',  ( 2.758270257686075477E-13, 1.724723750061123112E-32, 79.00000000000000000 ) ) ;
#30 = MANIFOLD_SOLID_BREP ( 'Corps-Déplacer/Copier1[1]', #174 ) ;
#31 = DIRECTION ( 'NONE',  ( 4.275831445896958607E-31, 1.000000000000000000, 1.224646799147353207E-16 ) ) ;
#32 = DIRECTION ( 'NONE',  ( 0.0000000000000000000, 1.000000000000000000, 0.0000000000000000000 ) ) ;
#33 = ADVANCED_FACE ( 'NONE', ( #254, #26 ), #116, .T. ) ;
#34 =( NAMED_UNIT ( * ) PLANE_ANGLE_UNIT ( ) SI_UNIT ( $, .RADIAN. ) );
#35 = AXIS2_PLACEMENT_3D ( 'NONE', #57, #76, #180 ) ;
#36 = CARTESIAN_POINT ( 'NONE',  ( 0.0000000000000000000, 0.0000000000000000000, 0.0000000000000000000 ) ) ;
#37 = APPROVAL ( #127, 'UNSPECIFIED' ) ;
#38 = CARTESIAN_POINT ( 'NONE',  ( 0.0000000000000000000, 0.0000000000000000000, 0.0000000000000000000 ) ) ;
#39 = FACE_OUTER_BOUND ( 'NONE', #227, .T. ) ;
#40 = AXIS2_PLACEMENT_3D ( 'NONE', #111, #178, #253 ) ;
#41 = DIRECTION ( 'NONE',  ( 0.0000000000000000000, -1.000000000000000000, 0.0000000000000000000 ) ) ;
#42 = CC_DESIGN_PERSON_AND_ORGANIZATION_ASSIGNMENT ( #105, #123, ( #22 ) ) ;
#43 = DATE_TIME_ROLE ( 'classification_date' ) ;
#44 = PRODUCT ( '960159', '960159', '', ( #78 ) ) ;
#45 = APPROVAL_ROLE ( '' ) ;
#46 = PERSON_AND_ORGANIZATION ( #144, #87 ) ;
#47 = SECURITY_CLASSIFICATION_LEVEL ( 'unclassified' ) ;
#48 = ORIENTED_EDGE ( 'NONE', *, *, #25, .F. ) ;
#49 = AXIS2_PLACEMENT_3D ( 'NONE', #219, #234, #51 ) ;
#50 = DIRECTION ( 'NONE',  ( 0.0000000000000000000, 1.000000000000000000, 0.0000000000000000000 ) ) ;
#51 = DIRECTION ( 'NONE',  ( -4.275831445896958607E-31, -1.000000000000000000, -1.224646799147353207E-16 ) ) ;
#52 = EDGE_LOOP ( 'NONE', ( #186 ) ) ;
#53 = AXIS2_PLACEMENT_3D ( 'NONE', #112, #153, #54 ) ;
#54 = DIRECTION ( 'NONE',  ( -5.135813185032641787E-31, -1.000000000000000000, -1.445602896647342861E-16 ) ) ;
#55 = CARTESIAN_POINT ( 'NONE',  ( 2.859289381878364666E-15, -1.002903710352803874E-16, 0.8189330270989678695 ) ) ;
#56 = DIRECTION ( 'NONE',  ( -3.491481338843133355E-15, 1.224646799147353207E-16, -1.000000000000000000 ) ) ;
#57 = CARTESIAN_POINT ( 'NONE',  ( 2.758270257686075477E-13, -9.674709713264090904E-15, 79.00000000000000000 ) ) ;
#58 = CIRCLE ( 'NONE', #146, 3.000000000000001332 ) ;
#59 = CARTESIAN_POINT ( 'NONE',  ( 1.234831761624453715E-13, -3.000000000000013323, 35.36698729810775887 ) ) ;
#60 = VERTEX_POINT ( 'NONE', #138 ) ;
#61 = COORDINATED_UNIVERSAL_TIME_OFFSET ( 1, 0, .AHEAD. ) ;
#62 = ADVANCED_FACE ( 'NONE', ( #195 ), #157, .F. ) ;
#63 = EDGE_LOOP ( 'NONE', ( #130 ) ) ;
#64 = CALENDAR_DATE ( 2021, 13, 10 ) ;
#65 = ADVANCED_FACE ( 'NONE', ( #74, #155 ), #194, .T. ) ;
#66 = CIRCLE ( 'NONE', #237, 2.383974596215573172 ) ;
#67 = ORIENTED_EDGE ( 'NONE', *, *, #182, .F. ) ;
#68 = ORIENTED_EDGE ( 'NONE', *, *, #71, .T. ) ;
#69 = CIRCLE ( 'NONE', #199, 2.250000000000004885 ) ;
#70 = DIRECTION ( 'NONE',  ( -3.491481338843133355E-15, 4.327174794786742882E-16, -1.000000000000000000 ) ) ;
#71 = EDGE_CURVE ( 'NONE', #118, #118, #223, .T. ) ;
#72 = ADVANCED_BREP_SHAPE_REPRESENTATION ( '960159', ( #30, #115, #217 ), #245 ) ;
#73 = DIRECTION ( 'NONE',  ( -3.491481338843133355E-15, 1.224646799147353207E-16, -1.000000000000000000 ) ) ;
#74 = FACE_OUTER_BOUND ( 'NONE', #63, .T. ) ;
#75 = PLANE ( 'NONE',  #260 ) ;
#76 = DIRECTION ( 'NONE',  ( -3.491481338843133355E-15, 1.224646799147353207E-16, -1.000000000000000000 ) ) ;
#77 = CARTESIAN_POINT ( 'NONE',  ( 1.180120692528978948E-13, -1.474514954580286030E-14, 33.79999999999999716 ) ) ;
#78 = MECHANICAL_CONTEXT ( 'NONE', #108, 'mechanical' ) ;
#79 = FACE_OUTER_BOUND ( 'NONE', #10, .T. ) ;
#80 = APPROVAL_PERSON_ORGANIZATION ( #205, #37, #191 ) ;
#81 = APPROVAL_ROLE ( '' ) ;
#82 = DATE_AND_TIME ( #85, #184 ) ;
#83 = ORIENTED_EDGE ( 'NONE', *, *, #121, .T. ) ;
#84 = APPROVAL ( #249, 'UNSPECIFIED' ) ;
#85 = CALENDAR_DATE ( 2021, 13, 10 ) ;
#86 = ORIENTED_EDGE ( 'NONE', *, *, #257, .T. ) ;
#87 = ORGANIZATION ( 'UNSPECIFIED', 'UNSPECIFIED', '' ) ;
#88 = APPROVAL_DATE_TIME ( #129, #143 ) ;
#89 = CC_DESIGN_PERSON_AND_ORGANIZATION_ASSIGNMENT ( #162, #168, ( #44 ) ) ;
#90 = CARTESIAN_POINT ( 'NONE',  ( 1.265068876987229263E-13, -1.567865793028159122E-14, 36.23301270189222123 ) ) ;
#91 = PLANE ( 'NONE',  #240 ) ;
#92 = DIRECTION ( 'NONE',  ( 0.0000000000000000000, -1.000000000000000000, 0.0000000000000000000 ) ) ;
#93 = ADVANCED_FACE ( 'NONE', ( #107 ), #75, .T. ) ;
#94 = EDGE_LOOP ( 'NONE', ( #67 ) ) ;
#95 = CC_DESIGN_SECURITY_CLASSIFICATION ( #104, ( #7 ) ) ;
#96 = DIRECTION ( 'NONE',  ( 3.491481338843133355E-15, -1.224646799147353207E-16, 1.000000000000000000 ) ) ;
#97 = DIRECTION ( 'NONE',  ( -3.491481338843133355E-15, 4.327174794786742882E-16, -1.000000000000000000 ) ) ;
#98 = ADVANCED_FACE ( 'NONE', ( #192, #152 ), #28, .T. ) ;
#99 = COORDINATED_UNIVERSAL_TIME_OFFSET ( 1, 0, .AHEAD. ) ;
#100 = APPROVAL_DATE_TIME ( #82, #84 ) ;
#101 = PERSON_AND_ORGANIZATION_ROLE ( 'design_supplier' ) ;
#102 = ORIENTED_EDGE ( 'NONE', *, *, #25, .T. ) ;
#103 = CIRCLE ( 'NONE', #35, 2.300000000000001599 ) ;
#104 = SECURITY_CLASSIFICATION ( '', '', #47 ) ;
#105 = PERSON_AND_ORGANIZATION ( #144, #87 ) ;
#106 = PRODUCT_RELATED_PRODUCT_CATEGORY ( 'detail', '', ( #44 ) ) ;
#107 = FACE_OUTER_BOUND ( 'NONE', #94, .T. ) ;
#108 = APPLICATION_CONTEXT ( 'configuration controlled 3d designs of mechanical parts and assemblies' ) ;
#109 = DIRECTION ( 'NONE',  ( -3.491481338843133355E-15, 1.224646799147353207E-16, -1.000000000000000000 ) ) ;
#110 = TOROIDAL_SURFACE ( 'NONE', #132, 3.250000000000010658, 0.9999999999999995559 ) ;
#111 = CARTESIAN_POINT ( 'NONE',  ( 1.023004032281038010E-13, -1.267862214872515791E-14, 29.30000000000000071 ) ) ;
#112 = CARTESIAN_POINT ( 'NONE',  ( 3.812385842504467288E-15, -1.337204947137065176E-16, 1.091910702798618571 ) ) ;
#113 = DIRECTION ( 'NONE',  ( 3.491481338843133355E-15, -4.327174794786742882E-16, 1.000000000000000000 ) ) ;
#114 = UNCERTAINTY_MEASURE_WITH_UNIT (LENGTH_MEASURE( 1.000000000000000082E-05 ), #200, 'distance_accuracy_value', 'NONE');
#115 = MANIFOLD_SOLID_BREP ( 'Corps-Déplacer/Copier1[2]', #231 ) ;
#116 = CONICAL_SURFACE ( 'NONE', #169, 2.300000000000001599, 0.7853981633974337351 ) ;
#117 = CARTESIAN_POINT ( 'NONE',  ( 1.180120692528978948E-13, 2.249999999999995559, 33.79999999999999716 ) ) ;
#118 = VERTEX_POINT ( 'NONE', #244 ) ;
#119 = CARTESIAN_POINT ( 'NONE',  ( 2.758270257686075477E-13, 2.299999999999992273, 79.00000000000000000 ) ) ;
#120 = APPROVAL_PERSON_ORGANIZATION ( #46, #143, #45 ) ;
#121 = EDGE_CURVE ( 'NONE', #160, #160, #69, .T. ) ;
#122 = VERTEX_POINT ( 'NONE', #119 ) ;
#123 = PERSON_AND_ORGANIZATION_ROLE ( 'creator' ) ;
#124 = EDGE_LOOP ( 'NONE', ( #190 ) ) ;
#125 = DESIGN_CONTEXT ( 'detailed design', #126, 'design' ) ;
#126 = APPLICATION_CONTEXT ( 'configuration controlled 3d designs of mechanical parts and assemblies' ) ;
#127 = APPROVAL_STATUS ( 'not_yet_approved' ) ;
#128 = EDGE_LOOP ( 'NONE', ( #102 ) ) ;
#129 = DATE_AND_TIME ( #23, #5 ) ;
#130 = ORIENTED_EDGE ( 'NONE', *, *, #182, .T. ) ;
#131 = ORIENTED_EDGE ( 'NONE', *, *, #148, .T. ) ;
#132 = AXIS2_PLACEMENT_3D ( 'NONE', #77, #19, #259 ) ;
#133 = EDGE_LOOP ( 'NONE', ( #236 ) ) ;
#134 = CC_DESIGN_PERSON_AND_ORGANIZATION_ASSIGNMENT ( #247, #101, ( #7 ) ) ;
#135 = CARTESIAN_POINT ( 'NONE',  ( 0.0000000000000000000, 0.0000000000000000000, 0.0000000000000000000 ) ) ;
#136 = LOCAL_TIME ( 14, 57, 2.000000000000000000, #99 ) ;
#137 = FACE_OUTER_BOUND ( 'NONE', #52, .T. ) ;
#138 = CARTESIAN_POINT ( 'NONE',  ( 1.023004032281038010E-13, -2.250000000000017764, 29.30000000000000071 ) ) ;
#139 = DIRECTION ( 'NONE',  ( 3.491481338843133355E-15, -4.327174794786742882E-16, 1.000000000000000000 ) ) ;
#140 = CARTESIAN_POINT ( 'NONE',  ( 1.197578099223194552E-13, -1.484220954611852777E-14, 34.29999999999999716 ) ) ;
#141 = AXIS2_PLACEMENT_3D ( 'NONE', #216, #70, #218 ) ;
#142 = PERSON_AND_ORGANIZATION_ROLE ( 'creator' ) ;
#143 = APPROVAL ( #24, 'UNSPECIFIED' ) ;
#144 = PERSON ( 'UNSPECIFIED', 'UNSPECIFIED', 'UNSPECIFIED', ('UNSPECIFIED'), ('UNSPECIFIED'), ('UNSPECIFIED') ) ;
#145 = PERSON_AND_ORGANIZATION ( #144, #87 ) ;
#146 = AXIS2_PLACEMENT_3D ( 'NONE', #27, #109, #50 ) ;
#147 = LOCAL_TIME ( 14, 57, 2.000000000000000000, #61 ) ;
#148 = EDGE_CURVE ( 'NONE', #242, #242, #251, .T. ) ;
#149 = DATE_AND_TIME ( #226, #136 ) ;
#150 = EDGE_LOOP ( 'NONE', ( #8 ) ) ;
#151 = CC_DESIGN_APPROVAL ( #37, ( #7 ) ) ;
#152 = FACE_OUTER_BOUND ( 'NONE', #150, .T. ) ;
#153 = DIRECTION ( 'NONE',  ( 3.491481338843133355E-15, -1.224646799147353207E-16, 1.000000000000000000 ) ) ;
#154 = CC_DESIGN_APPROVAL ( #143, ( #22 ) ) ;
#155 = FACE_OUTER_BOUND ( 'NONE', #9, .T. ) ;
#156 = CC_DESIGN_DATE_AND_TIME_ASSIGNMENT ( #3, #43, ( #104 ) ) ;
#157 = PLANE ( 'NONE',  #49 ) ;
#158 = VERTEX_POINT ( 'NONE', #181 ) ;
#159 = DIRECTION ( 'NONE',  ( -3.491481338843133355E-15, 4.327174794786742882E-16, -1.000000000000000000 ) ) ;
#160 = VERTEX_POINT ( 'NONE', #20 ) ;
#161 = CYLINDRICAL_SURFACE ( 'NONE', #213, 2.999999999999998224 ) ;
#162 = PERSON_AND_ORGANIZATION ( #144, #87 ) ;
#163 = AXIS2_PLACEMENT_3D ( 'NONE', #90, #113, #92 ) ;
#164 = COORDINATED_UNIVERSAL_TIME_OFFSET ( 1, 0, .AHEAD. ) ;
#165 = ADVANCED_FACE ( 'NONE', ( #235 ), #91, .F. ) ;
#166 = DATE_TIME_ROLE ( 'creation_date' ) ;
#167 = EDGE_LOOP ( 'NONE', ( #172 ) ) ;
#168 = PERSON_AND_ORGANIZATION_ROLE ( 'design_owner' ) ;
#169 = AXIS2_PLACEMENT_3D ( 'NONE', #256, #214, #32 ) ;
#170 = ADVANCED_FACE ( 'NONE', ( #255 ), #206, .T. ) ;
#171 = PERSON_AND_ORGANIZATION_ROLE ( 'classification_officer' ) ;
#172 = ORIENTED_EDGE ( 'NONE', *, *, #243, .F. ) ;
#173 = DIRECTION ( 'NONE',  ( -3.491481338843133355E-15, 4.327174794786742882E-16, -1.000000000000000000 ) ) ;
#174 = CLOSED_SHELL ( 'NONE', ( #262, #33, #165, #225, #98, #193, #62 ) ) ;
#175 = DIRECTION ( 'NONE',  ( -3.491481338843133355E-15, 1.224646799147353207E-16, -1.000000000000000000 ) ) ;
#176 = CARTESIAN_POINT ( 'NONE',  ( 1.023004032281038010E-13, -1.267862214872515791E-14, 29.30000000000000071 ) ) ;
#177 = CIRCLE ( 'NONE', #183, 2.999999999999998224 ) ;
#178 = DIRECTION ( 'NONE',  ( -3.491481338843133355E-15, 1.224646799147353207E-16, -1.000000000000000000 ) ) ;
#179 = DIRECTION ( 'NONE',  ( 1.000000000000000000, 0.0000000000000000000, 0.0000000000000000000 ) ) ;
#180 = DIRECTION ( 'NONE',  ( 0.0000000000000000000, 1.000000000000000000, 0.0000000000000000000 ) ) ;
#181 = CARTESIAN_POINT ( 'NONE',  ( 2.733829888314172723E-13, 2.999999999999992006, 78.29999999999998295 ) ) ;
#182 = EDGE_CURVE ( 'NONE', #60, #60, #1, .T. ) ;
#183 = AXIS2_PLACEMENT_3D ( 'NONE', #220, #139, #41 ) ;
#184 = LOCAL_TIME ( 14, 57, 2.000000000000000000, #164 ) ;
#185 = COORDINATED_UNIVERSAL_TIME_OFFSET ( 1, 0, .AHEAD. ) ;
#186 = ORIENTED_EDGE ( 'NONE', *, *, #148, .F. ) ;
#187 = CC_DESIGN_PERSON_AND_ORGANIZATION_ASSIGNMENT ( #246, #171, ( #104 ) ) ;
#188 = COORDINATED_UNIVERSAL_TIME_OFFSET ( 1, 0, .AHEAD. ) ;
#189 = AXIS2_PLACEMENT_3D ( 'NONE', #55, #73, #14 ) ;
#190 = ORIENTED_EDGE ( 'NONE', *, *, #121, .F. ) ;
#191 = APPROVAL_ROLE ( '' ) ;
#192 = FACE_BOUND ( 'NONE', #133, .T. ) ;
#193 = ADVANCED_FACE ( 'NONE', ( #137, #196 ), #110, .F. ) ;
#194 = CYLINDRICAL_SURFACE ( 'NONE', #228, 2.250000000000004885 ) ;
#195 = FACE_OUTER_BOUND ( 'NONE', #215, .T. ) ;
#196 = FACE_OUTER_BOUND ( 'NONE', #212, .T. ) ;
#197 = CC_DESIGN_DATE_AND_TIME_ASSIGNMENT ( #149, #166, ( #22 ) ) ;
#198 = DIRECTION ( 'NONE',  ( 0.0000000000000000000, -1.000000000000000000, 0.0000000000000000000 ) ) ;
#199 = AXIS2_PLACEMENT_3D ( 'NONE', #176, #12, #198 ) ;
#200 =( LENGTH_UNIT ( ) NAMED_UNIT ( * ) SI_UNIT ( .MILLI., .METRE. ) );
#201 = DIRECTION ( 'NONE',  ( 4.275831445896958607E-31, 1.000000000000000000, 1.224646799147353454E-16 ) ) ;
#202 = VERTEX_POINT ( 'NONE', #59 ) ;
#203 = CC_DESIGN_PERSON_AND_ORGANIZATION_ASSIGNMENT ( #6, #142, ( #7 ) ) ;
#204 = EDGE_LOOP ( 'NONE', ( #250 ) ) ;
#205 = PERSON_AND_ORGANIZATION ( #144, #87 ) ;
#206 = CONICAL_SURFACE ( 'NONE', #53, 2.999999999999992450, 1.221730476396026610 ) ;
#207 = CC_DESIGN_APPROVAL ( #84, ( #104 ) ) ;
#208 = APPROVAL_DATE_TIME ( #209, #37 ) ;
#209 = DATE_AND_TIME ( #230, #147 ) ;
#210 = PRODUCT_DEFINITION_SHAPE ( 'NONE', 'NONE',  #22 ) ;
#211 = SHAPE_DEFINITION_REPRESENTATION ( #210, #72 ) ;
#212 = EDGE_LOOP ( 'NONE', ( #248 ) ) ;
#213 = AXIS2_PLACEMENT_3D ( 'NONE', #38, #56, #201 ) ;
#214 = DIRECTION ( 'NONE',  ( -3.491481338843133355E-15, 1.224646799147353207E-16, -1.000000000000000000 ) ) ;
#215 = EDGE_LOOP ( 'NONE', ( #83 ) ) ;
#216 = CARTESIAN_POINT ( 'NONE',  ( 1.180120692528978948E-13, -1.462585080637918905E-14, 33.79999999999999716 ) ) ;
#217 = AXIS2_PLACEMENT_3D ( 'NONE', #36, #17, #179 ) ;
#218 = DIRECTION ( 'NONE',  ( 0.0000000000000000000, 1.000000000000000000, 0.0000000000000000000 ) ) ;
#219 = CARTESIAN_POINT ( 'NONE',  ( 1.023004032281038010E-13, 2.249639673992777927E-32, 29.30000000000000071 ) ) ;
#220 = CARTESIAN_POINT ( 'NONE',  ( 1.234831761624453715E-13, -1.530391360039147771E-14, 35.36698729810775887 ) ) ;
#221 = CYLINDRICAL_SURFACE ( 'NONE', #15, 2.250000000000004885 ) ;
#222 = DIRECTION ( 'NONE',  ( 0.0000000000000000000, 1.000000000000000000, 0.0000000000000000000 ) ) ;
#223 = CIRCLE ( 'NONE', #189, 2.250000000000004885 ) ;
#224 = VERTEX_POINT ( 'NONE', #18 ) ;
#225 = ADVANCED_FACE ( 'NONE', ( #39, #258 ), #221, .T. ) ;
#226 = CALENDAR_DATE ( 2021, 13, 10 ) ;
#227 = EDGE_LOOP ( 'NONE', ( #131 ) ) ;
#228 = AXIS2_PLACEMENT_3D ( 'NONE', #135, #173, #238 ) ;
#229 = APPLICATION_PROTOCOL_DEFINITION ( 'international standard', 'config_control_design', 1994, #126 ) ;
#230 = CALENDAR_DATE ( 2021, 13, 10 ) ;
#231 = CLOSED_SHELL ( 'NONE', ( #170, #65, #93 ) ) ;
#232 = EDGE_CURVE ( 'NONE', #224, #224, #66, .T. ) ;
#233 = LOCAL_TIME ( 14, 57, 2.000000000000000000, #185 ) ;
#234 = DIRECTION ( 'NONE',  ( 3.491481338843133355E-15, -1.224646799147353207E-16, 1.000000000000000000 ) ) ;
#235 = FACE_OUTER_BOUND ( 'NONE', #167, .T. ) ;
#236 = ORIENTED_EDGE ( 'NONE', *, *, #232, .F. ) ;
#237 = AXIS2_PLACEMENT_3D ( 'NONE', #140, #159, #222 ) ;
#238 = DIRECTION ( 'NONE',  ( 1.510825004591027855E-30, 1.000000000000000000, 4.327174794786743375E-16 ) ) ;
#239 = FACE_OUTER_BOUND ( 'NONE', #128, .T. ) ;
#240 = AXIS2_PLACEMENT_3D ( 'NONE', #29, #175, #31 ) ;
#241 = APPLICATION_PROTOCOL_DEFINITION ( 'international standard', 'config_control_design', 1994, #108 ) ;
#242 = VERTEX_POINT ( 'NONE', #117 ) ;
#243 = EDGE_CURVE ( 'NONE', #122, #122, #103, .T. ) ;
#244 = CARTESIAN_POINT ( 'NONE',  ( 2.859289381878363877E-15, -2.250000000000004885, 0.8189330270989675364 ) ) ;
#245 =( GEOMETRIC_REPRESENTATION_CONTEXT ( 3 ) GLOBAL_UNCERTAINTY_ASSIGNED_CONTEXT ( ( #114 ) ) GLOBAL_UNIT_ASSIGNED_CONTEXT ( ( #200, #34, #16 ) ) REPRESENTATION_CONTEXT ( 'NONE', 'WORKASPACE' ) );
#246 = PERSON_AND_ORGANIZATION ( #144, #87 ) ;
#247 = PERSON_AND_ORGANIZATION ( #144, #87 ) ;
#248 = ORIENTED_EDGE ( 'NONE', *, *, #232, .T. ) ;
#249 = APPROVAL_STATUS ( 'not_yet_approved' ) ;
#250 = ORIENTED_EDGE ( 'NONE', *, *, #243, .T. ) ;
#251 = CIRCLE ( 'NONE', #141, 2.250000000000010214 ) ;
#252 = CARTESIAN_POINT ( 'NONE',  ( 1.023004032281038010E-13, 2.249639673992777927E-32, 29.30000000000000071 ) ) ;
#253 = DIRECTION ( 'NONE',  ( 0.0000000000000000000, -1.000000000000000000, 0.0000000000000000000 ) ) ;
#254 = FACE_OUTER_BOUND ( 'NONE', #13, .T. ) ;
#255 = FACE_OUTER_BOUND ( 'NONE', #21, .T. ) ;
#256 = CARTESIAN_POINT ( 'NONE',  ( 2.758270257686075477E-13, -9.674709713264090904E-15, 79.00000000000000000 ) ) ;
#257 = EDGE_CURVE ( 'NONE', #202, #202, #177, .T. ) ;
#258 = FACE_OUTER_BOUND ( 'NONE', #124, .T. ) ;
#259 = DIRECTION ( 'NONE',  ( 1.510825004591027855E-30, 1.000000000000000000, 4.327174794786742882E-16 ) ) ;
#260 = AXIS2_PLACEMENT_3D ( 'NONE', #252, #96, #11 ) ;
#261 = CARTESIAN_POINT ( 'NONE',  ( 0.0000000000000000000, 0.0000000000000000000, 0.0000000000000000000 ) ) ;
#262 = ADVANCED_FACE ( 'NONE', ( #79, #239 ), #161, .T. ) ;
#263 = DIRECTION ( 'NONE',  ( 1.510825004591027855E-30, 1.000000000000000000, 4.327174794786743375E-16 ) ) ;
ENDSEC;
END-ISO-10303-21;
