ISO-10303-21;
HEADER;
FILE_DESCRIPTION (( 'STEP AP203' ),
    '1' );
FILE_NAME ('960158.step',
    '2021-10-13T12:57:01',
    ( '' ),
    ( '' ),
    'SwSTEP 2.0',
    'SolidWorks 2019',
    '' );
FILE_SCHEMA (( 'CONFIG_CONTROL_DESIGN' ));
ENDSEC;

DATA;
#1 = LOCAL_TIME ( 14, 57, 1.000000000000000000, #222 ) ;
#2 = ADVANCED_FACE ( 'NONE', ( #109, #211 ), #212, .F. ) ;
#3 = AXIS2_PLACEMENT_3D ( 'NONE', #184, #70, #213 ) ;
#4 = CALENDAR_DATE ( 2021, 13, 10 ) ;
#5 = DATE_TIME_ROLE ( 'classification_date' ) ;
#6 = ORIENTED_EDGE ( 'NONE', *, *, #235, .F. ) ;
#7 = DATE_AND_TIME ( #223, #196 ) ;
#8 = DIRECTION ( 'NONE',  ( 4.275831445896958607E-31, 1.000000000000000000, 1.224646799147353207E-16 ) ) ;
#9 = PRODUCT_DEFINITION ( 'UNKNOWN', '', #95, #133 ) ;
#10 =( GEOMETRIC_REPRESENTATION_CONTEXT ( 3 ) GLOBAL_UNCERTAINTY_ASSIGNED_CONTEXT ( ( #220 ) ) GLOBAL_UNIT_ASSIGNED_CONTEXT ( ( #234, #51, #99 ) ) REPRESENTATION_CONTEXT ( 'NONE', 'WORKASPACE' ) );
#11 = FACE_OUTER_BOUND ( 'NONE', #48, .T. ) ;
#12 = AXIS2_PLACEMENT_3D ( 'NONE', #167, #127, #8 ) ;
#13 = CYLINDRICAL_SURFACE ( 'NONE', #238, 2.999999999999998224 ) ;
#14 = DIRECTION ( 'NONE',  ( -3.491481338843133355E-15, 4.327174794786742882E-16, -1.000000000000000000 ) ) ;
#15 = EDGE_CURVE ( 'NONE', #78, #78, #216, .T. ) ;
#16 = DIRECTION ( 'NONE',  ( -3.491481338843133355E-15, 1.224646799147353207E-16, -1.000000000000000000 ) ) ;
#17 = APPROVAL_PERSON_ORGANIZATION ( #83, #96, #122 ) ;
#18 = AXIS2_PLACEMENT_3D ( 'NONE', #194, #93, #172 ) ;
#19 = CC_DESIGN_DATE_AND_TIME_ASSIGNMENT ( #164, #5, ( #249 ) ) ;
#20 = VERTEX_POINT ( 'NONE', #175 ) ;
#21 = DIRECTION ( 'NONE',  ( 3.491481338843133355E-15, -1.224646799147353207E-16, 1.000000000000000000 ) ) ;
#22 = APPLICATION_CONTEXT ( 'configuration controlled 3d designs of mechanical parts and assemblies' ) ;
#23 = DIRECTION ( 'NONE',  ( 3.491481338843133355E-15, -4.327174794786742882E-16, 1.000000000000000000 ) ) ;
#24 = DATE_AND_TIME ( #4, #119 ) ;
#25 = PERSON_AND_ORGANIZATION_ROLE ( 'creator' ) ;
#26 = APPROVAL_ROLE ( '' ) ;
#27 = FACE_OUTER_BOUND ( 'NONE', #161, .T. ) ;
#28 = DIRECTION ( 'NONE',  ( 1.510825004591027504E-30, 1.000000000000000000, 4.327174794786742389E-16 ) ) ;
#29 = AXIS2_PLACEMENT_3D ( 'NONE', #126, #90, #28 ) ;
#30 = DIRECTION ( 'NONE',  ( -3.491481338843133355E-15, 1.224646799147353207E-16, -1.000000000000000000 ) ) ;
#31 = CARTESIAN_POINT ( 'NONE',  ( 2.758270257686075477E-13, -9.674709713264090904E-15, 79.00000000000000000 ) ) ;
#32 = CARTESIAN_POINT ( 'NONE',  ( 1.127748472446332011E-13, 2.149999999999995914, 32.29999999999999716 ) ) ;
#33 = CARTESIAN_POINT ( 'NONE',  ( 1.188506964614361155E-13, -3.000000000000012879, 34.04019237886463145 ) ) ;
#34 = CARTESIAN_POINT ( 'NONE',  ( 2.733829888314172723E-13, 2.999999999999992006, 78.29999999999998295 ) ) ;
#35 = DIRECTION ( 'NONE',  ( -4.275831445896958607E-31, -1.000000000000000000, -1.224646799147353207E-16 ) ) ;
#36 = CARTESIAN_POINT ( 'NONE',  ( 2.758270257686075477E-13, 2.299999999999992273, 79.00000000000000000 ) ) ;
#37 = COORDINATED_UNIVERSAL_TIME_OFFSET ( 1, 0, .AHEAD. ) ;
#38 = SHAPE_DEFINITION_REPRESENTATION ( #61, #155 ) ;
#39 = EDGE_CURVE ( 'NONE', #20, #20, #260, .T. ) ;
#40 = COORDINATED_UNIVERSAL_TIME_OFFSET ( 1, 0, .AHEAD. ) ;
#41 = ORIENTED_EDGE ( 'NONE', *, *, #15, .F. ) ;
#42 = PERSON_AND_ORGANIZATION_ROLE ( 'classification_officer' ) ;
#43 = ORIENTED_EDGE ( 'NONE', *, *, #54, .F. ) ;
#44 = APPROVAL_STATUS ( 'not_yet_approved' ) ;
#45 = LOCAL_TIME ( 14, 57, 1.000000000000000000, #63 ) ;
#46 = DIRECTION ( 'NONE',  ( -3.491481338843133355E-15, 1.224646799147353207E-16, -1.000000000000000000 ) ) ;
#47 = CARTESIAN_POINT ( 'NONE',  ( 3.812385842504467288E-15, -1.337204947137065176E-16, 1.091910702798618571 ) ) ;
#48 = EDGE_LOOP ( 'NONE', ( #107 ) ) ;
#49 = CARTESIAN_POINT ( 'NONE',  ( 0.0000000000000000000, 0.0000000000000000000, 0.0000000000000000000 ) ) ;
#50 = CARTESIAN_POINT ( 'NONE',  ( 2.732209853794882344E-15, -9.583302121149015947E-17, 0.7825360036723473245 ) ) ;
#51 =( NAMED_UNIT ( * ) PLANE_ANGLE_UNIT ( ) SI_UNIT ( $, .RADIAN. ) );
#52 = AXIS2_PLACEMENT_3D ( 'NONE', #55, #98, #239 ) ;
#53 = ADVANCED_FACE ( 'NONE', ( #11, #233 ), #13, .T. ) ;
#54 = EDGE_CURVE ( 'NONE', #262, #262, #149, .T. ) ;
#55 = CARTESIAN_POINT ( 'NONE',  ( 1.218744079977136451E-13, -1.510453057704159019E-14, 34.90621778264908670 ) ) ;
#56 = CONICAL_SURFACE ( 'NONE', #52, 3.500000000000012434, 0.5235987755983022574 ) ;
#57 = AXIS2_PLACEMENT_3D ( 'NONE', #253, #250, #144 ) ;
#58 = APPROVAL_DATE_TIME ( #181, #206 ) ;
#59 = APPROVAL_STATUS ( 'not_yet_approved' ) ;
#60 = EDGE_LOOP ( 'NONE', ( #41 ) ) ;
#61 = PRODUCT_DEFINITION_SHAPE ( 'NONE', 'NONE',  #9 ) ;
#62 = CIRCLE ( 'NONE', #125, 2.150000000000005240 ) ;
#63 = COORDINATED_UNIVERSAL_TIME_OFFSET ( 1, 0, .AHEAD. ) ;
#64 = EDGE_LOOP ( 'NONE', ( #224 ) ) ;
#65 = EDGE_LOOP ( 'NONE', ( #85 ) ) ;
#66 = APPLICATION_CONTEXT ( 'configuration controlled 3d designs of mechanical parts and assemblies' ) ;
#67 = DIRECTION ( 'NONE',  ( 4.275831445896958607E-31, 1.000000000000000000, 1.224646799147353454E-16 ) ) ;
#68 = DIRECTION ( 'NONE',  ( -3.491481338843133355E-15, 1.224646799147353207E-16, -1.000000000000000000 ) ) ;
#69 = PRODUCT_RELATED_PRODUCT_CATEGORY ( 'detail', '', ( #71 ) ) ;
#70 = DIRECTION ( 'NONE',  ( -3.491481338843133355E-15, 1.224646799147353207E-16, -1.000000000000000000 ) ) ;
#71 = PRODUCT ( '960158', '960158', '', ( #130 ) ) ;
#72 = DIRECTION ( 'NONE',  ( -3.491481338843133355E-15, 1.224646799147353207E-16, -1.000000000000000000 ) ) ;
#73 = EDGE_LOOP ( 'NONE', ( #147 ) ) ;
#74 = CARTESIAN_POINT ( 'NONE',  ( 9.776147748760773395E-14, -2.150000000000017231, 28.00000000000000000 ) ) ;
#75 = ADVANCED_FACE ( 'NONE', ( #214 ), #256, .T. ) ;
#76 = CARTESIAN_POINT ( 'NONE',  ( 0.0000000000000000000, 0.0000000000000000000, 0.0000000000000000000 ) ) ;
#77 = AXIS2_PLACEMENT_3D ( 'NONE', #146, #232, #263 ) ;
#78 = VERTEX_POINT ( 'NONE', #74 ) ;
#79 = FACE_BOUND ( 'NONE', #182, .T. ) ;
#80 = CARTESIAN_POINT ( 'NONE',  ( 2.732209853794881555E-15, -2.150000000000005240, 0.7825360036723471024 ) ) ;
#81 = PERSON_AND_ORGANIZATION ( #123, #202 ) ;
#82 = CALENDAR_DATE ( 2021, 13, 10 ) ;
#83 = PERSON_AND_ORGANIZATION ( #123, #202 ) ;
#84 = ADVANCED_FACE ( 'NONE', ( #254 ), #208, .F. ) ;
#85 = ORIENTED_EDGE ( 'NONE', *, *, #210, .F. ) ;
#86 = DIRECTION ( 'NONE',  ( 0.0000000000000000000, -1.000000000000000000, 0.0000000000000000000 ) ) ;
#87 = CONICAL_SURFACE ( 'NONE', #207, 2.300000000000001599, 0.7853981633974337351 ) ;
#88 = DIRECTION ( 'NONE',  ( 3.491481338843133355E-15, -1.224646799147353207E-16, 1.000000000000000000 ) ) ;
#89 = CARTESIAN_POINT ( 'NONE',  ( 2.733829888314172723E-13, -9.588984437323771882E-15, 78.29999999999998295 ) ) ;
#90 = DIRECTION ( 'NONE',  ( -3.491481338843133355E-15, 4.327174794786742882E-16, -1.000000000000000000 ) ) ;
#91 = FACE_BOUND ( 'NONE', #248, .T. ) ;
#92 = CIRCLE ( 'NONE', #18, 2.150000000000010125 ) ;
#93 = DIRECTION ( 'NONE',  ( -3.491481338843133355E-15, 4.327174794786742882E-16, -1.000000000000000000 ) ) ;
#94 = CARTESIAN_POINT ( 'NONE',  ( 1.188506964614361155E-13, -1.472978624715147983E-14, 34.04019237886463145 ) ) ;
#95 = PRODUCT_DEFINITION_FORMATION_WITH_SPECIFIED_SOURCE ( 'ANY', '', #71, .NOT_KNOWN. ) ;
#96 = APPROVAL ( #44, 'UNSPECIFIED' ) ;
#97 = CLOSED_SHELL ( 'NONE', ( #75, #197, #137 ) ) ;
#98 = DIRECTION ( 'NONE',  ( 3.491481338843133355E-15, -4.327174794786742882E-16, 1.000000000000000000 ) ) ;
#99 =( NAMED_UNIT ( * ) SI_UNIT ( $, .STERADIAN. ) SOLID_ANGLE_UNIT ( ) );
#100 = ORIENTED_EDGE ( 'NONE', *, *, #39, .F. ) ;
#101 = APPLICATION_PROTOCOL_DEFINITION ( 'international standard', 'config_control_design', 1994, #66 ) ;
#102 = MANIFOLD_SOLID_BREP ( 'Corps-Déplacer/Copier1[2]', #97 ) ;
#103 = EDGE_LOOP ( 'NONE', ( #116 ) ) ;
#104 = APPROVAL_DATE_TIME ( #7, #96 ) ;
#105 = EDGE_LOOP ( 'NONE', ( #100 ) ) ;
#106 = CC_DESIGN_PERSON_AND_ORGANIZATION_ASSIGNMENT ( #136, #242, ( #95 ) ) ;
#107 = ORIENTED_EDGE ( 'NONE', *, *, #210, .T. ) ;
#108 = AXIS2_PLACEMENT_3D ( 'NONE', #198, #236, #217 ) ;
#109 = FACE_OUTER_BOUND ( 'NONE', #183, .T. ) ;
#110 = DIRECTION ( 'NONE',  ( -3.491481338843133355E-15, 1.224646799147353207E-16, -1.000000000000000000 ) ) ;
#111 = DIRECTION ( 'NONE',  ( 0.0000000000000000000, 1.000000000000000000, 0.0000000000000000000 ) ) ;
#112 = CLOSED_SHELL ( 'NONE', ( #53, #148, #84, #117, #257, #2, #245 ) ) ;
#113 = CC_DESIGN_PERSON_AND_ORGANIZATION_ASSIGNMENT ( #142, #42, ( #249 ) ) ;
#114 = CYLINDRICAL_SURFACE ( 'NONE', #108, 2.150000000000005240 ) ;
#115 = PERSON_AND_ORGANIZATION ( #123, #202 ) ;
#116 = ORIENTED_EDGE ( 'NONE', *, *, #145, .T. ) ;
#117 = ADVANCED_FACE ( 'NONE', ( #27, #128 ), #168, .T. ) ;
#118 = CALENDAR_DATE ( 2021, 13, 10 ) ;
#119 = LOCAL_TIME ( 14, 57, 1.000000000000000000, #40 ) ;
#120 = AXIS2_PLACEMENT_3D ( 'NONE', #47, #88, #230 ) ;
#121 = EDGE_LOOP ( 'NONE', ( #124 ) ) ;
#122 = APPROVAL_ROLE ( '' ) ;
#123 = PERSON ( 'UNSPECIFIED', 'UNSPECIFIED', 'UNSPECIFIED', ('UNSPECIFIED'), ('UNSPECIFIED'), ('UNSPECIFIED') ) ;
#124 = ORIENTED_EDGE ( 'NONE', *, *, #54, .T. ) ;
#125 = AXIS2_PLACEMENT_3D ( 'NONE', #50, #46, #190 ) ;
#126 = CARTESIAN_POINT ( 'NONE',  ( 1.127748472446332011E-13, -1.387778780781445676E-14, 32.29999999999999716 ) ) ;
#127 = DIRECTION ( 'NONE',  ( -3.491481338843133355E-15, 1.224646799147353207E-16, -1.000000000000000000 ) ) ;
#128 = FACE_OUTER_BOUND ( 'NONE', #60, .T. ) ;
#129 = EDGE_CURVE ( 'NONE', #152, #152, #170, .T. ) ;
#130 = MECHANICAL_CONTEXT ( 'NONE', #22, 'mechanical' ) ;
#131 = CC_DESIGN_APPROVAL ( #96, ( #9 ) ) ;
#132 = DIRECTION ( 'NONE',  ( 0.0000000000000000000, -1.000000000000000000, 0.0000000000000000000 ) ) ;
#133 = DESIGN_CONTEXT ( 'detailed design', #66, 'design' ) ;
#134 = FACE_OUTER_BOUND ( 'NONE', #65, .T. ) ;
#135 = VERTEX_POINT ( 'NONE', #33 ) ;
#136 = PERSON_AND_ORGANIZATION ( #123, #202 ) ;
#137 = ADVANCED_FACE ( 'NONE', ( #255 ), #150, .T. ) ;
#138 = ORIENTED_EDGE ( 'NONE', *, *, #188, .T. ) ;
#139 = PERSON_AND_ORGANIZATION ( #123, #202 ) ;
#140 = ORIENTED_EDGE ( 'NONE', *, *, #235, .T. ) ;
#141 = CIRCLE ( 'NONE', #241, 2.999999999999998224 ) ;
#142 = PERSON_AND_ORGANIZATION ( #123, #202 ) ;
#143 = EDGE_LOOP ( 'NONE', ( #180 ) ) ;
#144 = DIRECTION ( 'NONE',  ( -4.275831445896958607E-31, -1.000000000000000000, -1.224646799147353207E-16 ) ) ;
#145 = EDGE_CURVE ( 'NONE', #192, #192, #62, .T. ) ;
#146 = CARTESIAN_POINT ( 'NONE',  ( 1.145205879140547488E-13, -1.419313332690051318E-14, 32.79999999999999716 ) ) ;
#147 = ORIENTED_EDGE ( 'NONE', *, *, #129, .F. ) ;
#148 = ADVANCED_FACE ( 'NONE', ( #151, #91 ), #87, .T. ) ;
#149 = CIRCLE ( 'NONE', #226, 3.000000000000001332 ) ;
#150 = PLANE ( 'NONE',  #57 ) ;
#151 = FACE_OUTER_BOUND ( 'NONE', #177, .T. ) ;
#152 = VERTEX_POINT ( 'NONE', #36 ) ;
#153 = CC_DESIGN_APPROVAL ( #231, ( #249 ) ) ;
#154 = DIRECTION ( 'NONE',  ( 1.000000000000000000, 0.0000000000000000000, 0.0000000000000000000 ) ) ;
#155 = ADVANCED_BREP_SHAPE_REPRESENTATION ( '960158', ( #193, #102, #240 ), #10 ) ;
#156 = FACE_OUTER_BOUND ( 'NONE', #229, .T. ) ;
#157 = PERSON_AND_ORGANIZATION_ROLE ( 'creator' ) ;
#158 = CC_DESIGN_APPROVAL ( #206, ( #95 ) ) ;
#159 = AXIS2_PLACEMENT_3D ( 'NONE', #261, #21, #35 ) ;
#160 = COORDINATED_UNIVERSAL_TIME_OFFSET ( 1, 0, .AHEAD. ) ;
#161 = EDGE_LOOP ( 'NONE', ( #140 ) ) ;
#162 = CC_DESIGN_PERSON_AND_ORGANIZATION_ASSIGNMENT ( #201, #25, ( #9 ) ) ;
#163 = CALENDAR_DATE ( 2021, 13, 10 ) ;
#164 = DATE_AND_TIME ( #163, #185 ) ;
#165 = ORIENTED_EDGE ( 'NONE', *, *, #145, .F. ) ;
#166 = DIRECTION ( 'NONE',  ( 1.510825004591027855E-30, 1.000000000000000000, 4.327174794786743375E-16 ) ) ;
#167 = CARTESIAN_POINT ( 'NONE',  ( 2.758270257686075477E-13, 1.724723750061123112E-32, 79.00000000000000000 ) ) ;
#168 = CYLINDRICAL_SURFACE ( 'NONE', #252, 2.150000000000005240 ) ;
#169 = APPROVAL_PERSON_ORGANIZATION ( #81, #206, #26 ) ;
#170 = CIRCLE ( 'NONE', #174, 2.300000000000001599 ) ;
#171 = DIRECTION ( 'NONE',  ( 0.0000000000000000000, 1.000000000000000000, 0.0000000000000000000 ) ) ;
#172 = DIRECTION ( 'NONE',  ( 0.0000000000000000000, 1.000000000000000000, 0.0000000000000000000 ) ) ;
#173 = VERTEX_POINT ( 'NONE', #219 ) ;
#174 = AXIS2_PLACEMENT_3D ( 'NONE', #31, #30, #111 ) ;
#175 = CARTESIAN_POINT ( 'NONE',  ( 9.776147748760773395E-14, -2.150000000000017231, 28.00000000000000000 ) ) ;
#176 = APPLICATION_PROTOCOL_DEFINITION ( 'international standard', 'config_control_design', 1994, #22 ) ;
#177 = EDGE_LOOP ( 'NONE', ( #43 ) ) ;
#178 = CC_DESIGN_DATE_AND_TIME_ASSIGNMENT ( #205, #225, ( #9 ) ) ;
#179 = PERSON_AND_ORGANIZATION_ROLE ( 'design_owner' ) ;
#180 = ORIENTED_EDGE ( 'NONE', *, *, #15, .T. ) ;
#181 = DATE_AND_TIME ( #82, #1 ) ;
#182 = EDGE_LOOP ( 'NONE', ( #200 ) ) ;
#183 = EDGE_LOOP ( 'NONE', ( #6 ) ) ;
#184 = CARTESIAN_POINT ( 'NONE',  ( 9.776147748760773395E-14, -1.211608942540288165E-14, 28.00000000000000000 ) ) ;
#185 = LOCAL_TIME ( 14, 57, 1.000000000000000000, #37 ) ;
#186 = CIRCLE ( 'NONE', #77, 2.283974596215573083 ) ;
#187 = CARTESIAN_POINT ( 'NONE',  ( 9.776147748760773395E-14, -1.211608942540288165E-14, 28.00000000000000000 ) ) ;
#188 = EDGE_CURVE ( 'NONE', #173, #173, #186, .T. ) ;
#189 = CARTESIAN_POINT ( 'NONE',  ( 0.0000000000000000000, 0.0000000000000000000, 0.0000000000000000000 ) ) ;
#190 = DIRECTION ( 'NONE',  ( -3.583125477929732598E-31, -1.000000000000000000, -1.008560160451629632E-16 ) ) ;
#191 = APPROVAL_PERSON_ORGANIZATION ( #115, #231, #199 ) ;
#192 = VERTEX_POINT ( 'NONE', #80 ) ;
#193 = MANIFOLD_SOLID_BREP ( 'Corps-Déplacer/Copier1[1]', #112 ) ;
#194 = CARTESIAN_POINT ( 'NONE',  ( 1.127748472446332011E-13, -1.397677458716117919E-14, 32.29999999999999716 ) ) ;
#195 = DIRECTION ( 'NONE',  ( 0.0000000000000000000, 0.0000000000000000000, 1.000000000000000000 ) ) ;
#196 = LOCAL_TIME ( 14, 57, 1.000000000000000000, #160 ) ;
#197 = ADVANCED_FACE ( 'NONE', ( #215, #156 ), #114, .T. ) ;
#198 = CARTESIAN_POINT ( 'NONE',  ( 0.0000000000000000000, 0.0000000000000000000, 0.0000000000000000000 ) ) ;
#199 = APPROVAL_ROLE ( '' ) ;
#200 = ORIENTED_EDGE ( 'NONE', *, *, #188, .F. ) ;
#201 = PERSON_AND_ORGANIZATION ( #123, #202 ) ;
#202 = ORGANIZATION ( 'UNSPECIFIED', 'UNSPECIFIED', '' ) ;
#203 = SECURITY_CLASSIFICATION_LEVEL ( 'unclassified' ) ;
#204 = ORIENTED_EDGE ( 'NONE', *, *, #129, .T. ) ;
#205 = DATE_AND_TIME ( #118, #45 ) ;
#206 = APPROVAL ( #243, 'UNSPECIFIED' ) ;
#207 = AXIS2_PLACEMENT_3D ( 'NONE', #209, #68, #171 ) ;
#208 = PLANE ( 'NONE',  #12 ) ;
#209 = CARTESIAN_POINT ( 'NONE',  ( 2.758270257686075477E-13, -9.674709713264090904E-15, 79.00000000000000000 ) ) ;
#210 = EDGE_CURVE ( 'NONE', #135, #135, #141, .T. ) ;
#211 = FACE_OUTER_BOUND ( 'NONE', #244, .T. ) ;
#212 = TOROIDAL_SURFACE ( 'NONE', #29, 3.150000000000010569, 0.9999999999999995559 ) ;
#213 = DIRECTION ( 'NONE',  ( 0.0000000000000000000, -1.000000000000000000, 0.0000000000000000000 ) ) ;
#214 = FACE_OUTER_BOUND ( 'NONE', #103, .T. ) ;
#215 = FACE_OUTER_BOUND ( 'NONE', #64, .T. ) ;
#216 = CIRCLE ( 'NONE', #247, 2.150000000000005240 ) ;
#217 = DIRECTION ( 'NONE',  ( 1.510825004591027855E-30, 1.000000000000000000, 4.327174794786743375E-16 ) ) ;
#218 = FACE_OUTER_BOUND ( 'NONE', #143, .T. ) ;
#219 = CARTESIAN_POINT ( 'NONE',  ( 1.145205879140547488E-13, 2.283974596215558872, 32.79999999999999716 ) ) ;
#220 = UNCERTAINTY_MEASURE_WITH_UNIT (LENGTH_MEASURE( 1.000000000000000082E-05 ), #234, 'distance_accuracy_value', 'NONE');
#221 = VERTEX_POINT ( 'NONE', #32 ) ;
#222 = COORDINATED_UNIVERSAL_TIME_OFFSET ( 1, 0, .AHEAD. ) ;
#223 = CALENDAR_DATE ( 2021, 13, 10 ) ;
#224 = ORIENTED_EDGE ( 'NONE', *, *, #39, .T. ) ;
#225 = DATE_TIME_ROLE ( 'creation_date' ) ;
#226 = AXIS2_PLACEMENT_3D ( 'NONE', #89, #72, #258 ) ;
#227 = APPROVAL_DATE_TIME ( #24, #231 ) ;
#228 = CC_DESIGN_PERSON_AND_ORGANIZATION_ASSIGNMENT ( #139, #179, ( #71 ) ) ;
#229 = EDGE_LOOP ( 'NONE', ( #165 ) ) ;
#230 = DIRECTION ( 'NONE',  ( -5.135813185032641787E-31, -1.000000000000000000, -1.445602896647342861E-16 ) ) ;
#231 = APPROVAL ( #59, 'UNSPECIFIED' ) ;
#232 = DIRECTION ( 'NONE',  ( -3.491481338843133355E-15, 4.327174794786742882E-16, -1.000000000000000000 ) ) ;
#233 = FACE_OUTER_BOUND ( 'NONE', #121, .T. ) ;
#234 =( LENGTH_UNIT ( ) NAMED_UNIT ( * ) SI_UNIT ( .MILLI., .METRE. ) );
#235 = EDGE_CURVE ( 'NONE', #221, #221, #92, .T. ) ;
#236 = DIRECTION ( 'NONE',  ( -3.491481338843133355E-15, 4.327174794786742882E-16, -1.000000000000000000 ) ) ;
#237 = CC_DESIGN_SECURITY_CLASSIFICATION ( #249, ( #95 ) ) ;
#238 = AXIS2_PLACEMENT_3D ( 'NONE', #49, #110, #67 ) ;
#239 = DIRECTION ( 'NONE',  ( 0.0000000000000000000, -1.000000000000000000, 0.0000000000000000000 ) ) ;
#240 = AXIS2_PLACEMENT_3D ( 'NONE', #76, #195, #154 ) ;
#241 = AXIS2_PLACEMENT_3D ( 'NONE', #94, #23, #132 ) ;
#242 = PERSON_AND_ORGANIZATION_ROLE ( 'design_supplier' ) ;
#243 = APPROVAL_STATUS ( 'not_yet_approved' ) ;
#244 = EDGE_LOOP ( 'NONE', ( #138 ) ) ;
#245 = ADVANCED_FACE ( 'NONE', ( #218 ), #259, .F. ) ;
#246 = PERSON_AND_ORGANIZATION ( #123, #202 ) ;
#247 = AXIS2_PLACEMENT_3D ( 'NONE', #187, #16, #86 ) ;
#248 = EDGE_LOOP ( 'NONE', ( #204 ) ) ;
#249 = SECURITY_CLASSIFICATION ( '', '', #203 ) ;
#250 = DIRECTION ( 'NONE',  ( 3.491481338843133355E-15, -1.224646799147353207E-16, 1.000000000000000000 ) ) ;
#251 = CC_DESIGN_PERSON_AND_ORGANIZATION_ASSIGNMENT ( #246, #157, ( #95 ) ) ;
#252 = AXIS2_PLACEMENT_3D ( 'NONE', #189, #14, #166 ) ;
#253 = CARTESIAN_POINT ( 'NONE',  ( 9.776147748760773395E-14, 2.249639673992777927E-32, 28.00000000000000000 ) ) ;
#254 = FACE_OUTER_BOUND ( 'NONE', #73, .T. ) ;
#255 = FACE_OUTER_BOUND ( 'NONE', #105, .T. ) ;
#256 = CONICAL_SURFACE ( 'NONE', #120, 2.999999999999992450, 1.221730476396026610 ) ;
#257 = ADVANCED_FACE ( 'NONE', ( #79, #134 ), #56, .T. ) ;
#258 = DIRECTION ( 'NONE',  ( 0.0000000000000000000, 1.000000000000000000, 0.0000000000000000000 ) ) ;
#259 = PLANE ( 'NONE',  #159 ) ;
#260 = CIRCLE ( 'NONE', #3, 2.150000000000005240 ) ;
#261 = CARTESIAN_POINT ( 'NONE',  ( 9.776147748760773395E-14, 2.249639673992777927E-32, 28.00000000000000000 ) ) ;
#262 = VERTEX_POINT ( 'NONE', #34 ) ;
#263 = DIRECTION ( 'NONE',  ( 0.0000000000000000000, 1.000000000000000000, 0.0000000000000000000 ) ) ;
ENDSEC;
END-ISO-10303-21;
