ISO-10303-21;
HEADER;
FILE_DESCRIPTION (( 'STEP AP203' ),
    '1' );
FILE_NAME ('960157.step',
    '2021-10-13T12:57:00',
    ( '' ),
    ( '' ),
    'SwSTEP 2.0',
    'SolidWorks 2019',
    '' );
FILE_SCHEMA (( 'CONFIG_CONTROL_DESIGN' ));
ENDSEC;

DATA;
#1 = AXIS2_PLACEMENT_3D ( 'NONE', #92, #187, #151 ) ;
#2 = AXIS2_PLACEMENT_3D ( 'NONE', #227, #249, #226 ) ;
#3 = APPROVAL ( #116, 'UNSPECIFIED' ) ;
#4 = EDGE_LOOP ( 'NONE', ( #50 ) ) ;
#5 = DIRECTION ( 'NONE',  ( -3.491481338843133355E-15, 1.224646799147353207E-16, -1.000000000000000000 ) ) ;
#6 = PRODUCT ( '960157', '960157', '', ( #31 ) ) ;
#7 = EDGE_LOOP ( 'NONE', ( #88 ) ) ;
#8 = ADVANCED_FACE ( 'NONE', ( #11, #206 ), #165, .T. ) ;
#9 = EDGE_LOOP ( 'NONE', ( #106 ) ) ;
#10 = DIRECTION ( 'NONE',  ( -3.491481338843133355E-15, 4.327174794786742882E-16, -1.000000000000000000 ) ) ;
#11 = FACE_OUTER_BOUND ( 'NONE', #204, .T. ) ;
#12 = PLANE ( 'NONE',  #2 ) ;
#13 = DATE_TIME_ROLE ( 'creation_date' ) ;
#14 = COORDINATED_UNIVERSAL_TIME_OFFSET ( 1, 0, .AHEAD. ) ;
#15 = APPLICATION_CONTEXT ( 'configuration controlled 3d designs of mechanical parts and assemblies' ) ;
#16 = COORDINATED_UNIVERSAL_TIME_OFFSET ( 1, 0, .AHEAD. ) ;
#17 = PERSON_AND_ORGANIZATION ( #117, #258 ) ;
#18 = CC_DESIGN_PERSON_AND_ORGANIZATION_ASSIGNMENT ( #208, #193, ( #192 ) ) ;
#19 = DATE_AND_TIME ( #190, #61 ) ;
#20 = AXIS2_PLACEMENT_3D ( 'NONE', #135, #10, #166 ) ;
#21 = CARTESIAN_POINT ( 'NONE',  ( 9.531744055041754691E-14, -1.181318718976780933E-14, 27.30000000000000071 ) ) ;
#22 = CARTESIAN_POINT ( 'NONE',  ( 0.0000000000000000000, 0.0000000000000000000, 0.0000000000000000000 ) ) ;
#23 = CONICAL_SURFACE ( 'NONE', #230, 3.500000000000012434, 0.5235987755982987046 ) ;
#24 = FACE_OUTER_BOUND ( 'NONE', #248, .T. ) ;
#25 = ORIENTED_EDGE ( 'NONE', *, *, #214, .T. ) ;
#26 = ORIENTED_EDGE ( 'NONE', *, *, #259, .F. ) ;
#27 = VERTEX_POINT ( 'NONE', #163 ) ;
#28 = ORIENTED_EDGE ( 'NONE', *, *, #205, .F. ) ;
#29 = VERTEX_POINT ( 'NONE', #107 ) ;
#30 = EDGE_LOOP ( 'NONE', ( #224 ) ) ;
#31 = MECHANICAL_CONTEXT ( 'NONE', #15, 'mechanical' ) ;
#32 = EDGE_LOOP ( 'NONE', ( #28 ) ) ;
#33 = VERTEX_POINT ( 'NONE', #184 ) ;
#34 = FACE_OUTER_BOUND ( 'NONE', #32, .T. ) ;
#35 = APPROVAL_ROLE ( '' ) ;
#36 = PERSON_AND_ORGANIZATION_ROLE ( 'classification_officer' ) ;
#37 = APPROVAL_ROLE ( '' ) ;
#38 = AXIS2_PLACEMENT_3D ( 'NONE', #46, #5, #198 ) ;
#39 = CC_DESIGN_APPROVAL ( #3, ( #192 ) ) ;
#40 = CC_DESIGN_PERSON_AND_ORGANIZATION_ASSIGNMENT ( #127, #154, ( #6 ) ) ;
#41 = FACE_OUTER_BOUND ( 'NONE', #85, .T. ) ;
#42 = APPLICATION_CONTEXT ( 'configuration controlled 3d designs of mechanical parts and assemblies' ) ;
#43 = DIRECTION ( 'NONE',  ( 0.0000000000000000000, 1.000000000000000000, 0.0000000000000000000 ) ) ;
#44 = ADVANCED_FACE ( 'NONE', ( #232, #82 ), #164, .T. ) ;
#45 = FACE_BOUND ( 'NONE', #228, .T. ) ;
#46 = CARTESIAN_POINT ( 'NONE',  ( 9.531744055041754691E-14, -1.181318718976780933E-14, 27.30000000000000071 ) ) ;
#47 = ORIENTED_EDGE ( 'NONE', *, *, #153, .F. ) ;
#48 = AXIS2_PLACEMENT_3D ( 'NONE', #93, #251, #246 ) ;
#49 = DIRECTION ( 'NONE',  ( 0.0000000000000000000, -1.000000000000000000, 0.0000000000000000000 ) ) ;
#50 = ORIENTED_EDGE ( 'NONE', *, *, #153, .T. ) ;
#51 = VERTEX_POINT ( 'NONE', #111 ) ;
#52 =( LENGTH_UNIT ( ) NAMED_UNIT ( * ) SI_UNIT ( .MILLI., .METRE. ) );
#53 = TOROIDAL_SURFACE ( 'NONE', #114, 3.100000000000009415, 0.9999999999999991118 ) ;
#54 = APPROVAL_PERSON_ORGANIZATION ( #76, #240, #138 ) ;
#55 = VERTEX_POINT ( 'NONE', #89 ) ;
#56 = APPROVAL_STATUS ( 'not_yet_approved' ) ;
#57 = CC_DESIGN_DATE_AND_TIME_ASSIGNMENT ( #171, #13, ( #192 ) ) ;
#58 = CONICAL_SURFACE ( 'NONE', #176, 2.999999999999992450, 1.221730476396026610 ) ;
#59 = DATE_AND_TIME ( #119, #169 ) ;
#60 = PERSON_AND_ORGANIZATION ( #117, #258 ) ;
#61 = LOCAL_TIME ( 14, 57, 0.0000000000000000000, #14 ) ;
#62 = DIRECTION ( 'NONE',  ( -3.491481338843133355E-15, 4.327174794786742882E-16, -1.000000000000000000 ) ) ;
#63 = DIRECTION ( 'NONE',  ( -3.491481338843133355E-15, 1.224646799147353207E-16, -1.000000000000000000 ) ) ;
#64 = DIRECTION ( 'NONE',  ( 4.275831445896958607E-31, 1.000000000000000000, 1.224646799147353454E-16 ) ) ;
#65 = CYLINDRICAL_SURFACE ( 'NONE', #172, 2.999999999999998224 ) ;
#66 = DIRECTION ( 'NONE',  ( -4.275831445896958607E-31, -1.000000000000000000, -1.224646799147353207E-16 ) ) ;
#67 = ORIENTED_EDGE ( 'NONE', *, *, #205, .T. ) ;
#68 = ADVANCED_FACE ( 'NONE', ( #217, #175 ), #53, .F. ) ;
#69 = FACE_OUTER_BOUND ( 'NONE', #132, .T. ) ;
#70 = CLOSED_SHELL ( 'NONE', ( #90, #8, #255 ) ) ;
#71 = SECURITY_CLASSIFICATION ( '', '', #95 ) ;
#72 = CARTESIAN_POINT ( 'NONE',  ( 1.117274028429802674E-13, 2.233974596215558162, 32.00000000000000000 ) ) ;
#73 = EDGE_LOOP ( 'NONE', ( #225 ) ) ;
#74 = APPLICATION_PROTOCOL_DEFINITION ( 'international standard', 'config_control_design', 1994, #15 ) ;
#75 = LOCAL_TIME ( 14, 57, 0.0000000000000000000, #16 ) ;
#76 = PERSON_AND_ORGANIZATION ( #117, #258 ) ;
#77 = CIRCLE ( 'NONE', #20, 2.233974596215572372 ) ;
#78 = CARTESIAN_POINT ( 'NONE',  ( 1.099816621735587070E-13, -1.363060060357824008E-14, 31.50000000000000000 ) ) ;
#79 = EDGE_CURVE ( 'NONE', #51, #51, #215, .T. ) ;
#80 = DIRECTION ( 'NONE',  ( 0.0000000000000000000, 1.000000000000000000, 0.0000000000000000000 ) ) ;
#81 = DIRECTION ( 'NONE',  ( 0.0000000000000000000, -1.000000000000000000, 0.0000000000000000000 ) ) ;
#82 = FACE_BOUND ( 'NONE', #126, .T. ) ;
#83 = CIRCLE ( 'NONE', #38, 2.100000000000005418 ) ;
#84 = CC_DESIGN_PERSON_AND_ORGANIZATION_ASSIGNMENT ( #60, #36, ( #71 ) ) ;
#85 = EDGE_LOOP ( 'NONE', ( #26 ) ) ;
#86 = VERTEX_POINT ( 'NONE', #133 ) ;
#87 = ORIENTED_EDGE ( 'NONE', *, *, #79, .F. ) ;
#88 = ORIENTED_EDGE ( 'NONE', *, *, #118, .F. ) ;
#89 = CARTESIAN_POINT ( 'NONE',  ( 2.668670089753140591E-15, -2.100000000000005418, 0.7643374919590367744 ) ) ;
#90 = ADVANCED_FACE ( 'NONE', ( #104 ), #58, .T. ) ;
#91 = AXIS2_PLACEMENT_3D ( 'NONE', #21, #219, #49 ) ;
#92 = CARTESIAN_POINT ( 'NONE',  ( 0.0000000000000000000, 0.0000000000000000000, 0.0000000000000000000 ) ) ;
#93 = CARTESIAN_POINT ( 'NONE',  ( 1.163598825439893971E-13, -1.442108669655755933E-14, 33.32679491924309190 ) ) ;
#94 = APPLICATION_PROTOCOL_DEFINITION ( 'international standard', 'config_control_design', 1994, #42 ) ;
#95 = SECURITY_CLASSIFICATION_LEVEL ( 'unclassified' ) ;
#96 = CALENDAR_DATE ( 2021, 13, 10 ) ;
#97 = DATE_AND_TIME ( #213, #75 ) ;
#98 = AXIS2_PLACEMENT_3D ( 'NONE', #144, #148, #250 ) ;
#99 = APPROVAL_STATUS ( 'not_yet_approved' ) ;
#100 = EDGE_CURVE ( 'NONE', #33, #33, #257, .T. ) ;
#101 = AXIS2_PLACEMENT_3D ( 'NONE', #158, #263, #66 ) ;
#102 = PRODUCT_RELATED_PRODUCT_CATEGORY ( 'detail', '', ( #6 ) ) ;
#103 = DIRECTION ( 'NONE',  ( -3.491481338843133355E-15, 1.224646799147353207E-16, -1.000000000000000000 ) ) ;
#104 = FACE_OUTER_BOUND ( 'NONE', #4, .T. ) ;
#105 = CYLINDRICAL_SURFACE ( 'NONE', #98, 2.100000000000005418 ) ;
#106 = ORIENTED_EDGE ( 'NONE', *, *, #185, .F. ) ;
#107 = CARTESIAN_POINT ( 'NONE',  ( 1.163598825439893971E-13, -3.000000000000012434, 33.32679491924309190 ) ) ;
#108 =( NAMED_UNIT ( * ) SI_UNIT ( $, .STERADIAN. ) SOLID_ANGLE_UNIT ( ) );
#109 = APPROVAL_PERSON_ORGANIZATION ( #17, #3, #35 ) ;
#110 = ORIENTED_EDGE ( 'NONE', *, *, #79, .T. ) ;
#111 = CARTESIAN_POINT ( 'NONE',  ( 1.099816621735587070E-13, 2.099999999999996980, 31.50000000000000000 ) ) ;
#112 = APPROVAL ( #99, 'UNSPECIFIED' ) ;
#113 = COORDINATED_UNIVERSAL_TIME_OFFSET ( 1, 0, .AHEAD. ) ;
#114 = AXIS2_PLACEMENT_3D ( 'NONE', #124, #62, #237 ) ;
#115 = CIRCLE ( 'NONE', #91, 2.100000000000005418 ) ;
#116 = APPROVAL_STATUS ( 'not_yet_approved' ) ;
#117 = PERSON ( 'UNSPECIFIED', 'UNSPECIFIED', 'UNSPECIFIED', ('UNSPECIFIED'), ('UNSPECIFIED'), ('UNSPECIFIED') ) ;
#118 = EDGE_CURVE ( 'NONE', #231, #231, #140, .T. ) ;
#119 = CALENDAR_DATE ( 2021, 13, 10 ) ;
#120 = PLANE ( 'NONE',  #101 ) ;
#121 = CC_DESIGN_PERSON_AND_ORGANIZATION_ASSIGNMENT ( #234, #253, ( #254 ) ) ;
#122 = DIRECTION ( 'NONE',  ( 0.0000000000000000000, 1.000000000000000000, 0.0000000000000000000 ) ) ;
#123 = CIRCLE ( 'NONE', #149, 2.100000000000005418 ) ;
#124 = CARTESIAN_POINT ( 'NONE',  ( 1.099816621735587070E-13, -1.344410693882025498E-14, 31.50000000000000000 ) ) ;
#125 = EDGE_LOOP ( 'NONE', ( #87 ) ) ;
#126 = EDGE_LOOP ( 'NONE', ( #245 ) ) ;
#127 = PERSON_AND_ORGANIZATION ( #117, #258 ) ;
#128 = ADVANCED_FACE ( 'NONE', ( #45, #41 ), #23, .T. ) ;
#129 = EDGE_LOOP ( 'NONE', ( #47 ) ) ;
#130 = DIRECTION ( 'NONE',  ( -3.491481338843133355E-15, 1.224646799147353207E-16, -1.000000000000000000 ) ) ;
#131 = ADVANCED_FACE ( 'NONE', ( #262 ), #120, .F. ) ;
#132 = EDGE_LOOP ( 'NONE', ( #110 ) ) ;
#133 = CARTESIAN_POINT ( 'NONE',  ( 9.531744055041754691E-14, -2.100000000000017408, 27.30000000000000071 ) ) ;
#134 = ORIENTED_EDGE ( 'NONE', *, *, #118, .T. ) ;
#135 = CARTESIAN_POINT ( 'NONE',  ( 1.117274028429802674E-13, -1.384695934331757722E-14, 32.00000000000000000 ) ) ;
#136 = MANIFOLD_SOLID_BREP ( 'Corps-Déplacer/Copier1[1]', #238 ) ;
#137 = DESIGN_CONTEXT ( 'detailed design', #42, 'design' ) ;
#138 = APPROVAL_ROLE ( '' ) ;
#139 = CC_DESIGN_PERSON_AND_ORGANIZATION_ASSIGNMENT ( #155, #236, ( #254 ) ) ;
#140 = CIRCLE ( 'NONE', #260, 3.000000000000001332 ) ;
#141 = CARTESIAN_POINT ( 'NONE',  ( 2.758270257686075477E-13, -9.674709713264090904E-15, 79.00000000000000000 ) ) ;
#142 = CARTESIAN_POINT ( 'NONE',  ( 2.668670089753141380E-15, -9.360434629959505783E-17, 0.7643374919590369965 ) ) ;
#143 = FACE_OUTER_BOUND ( 'NONE', #73, .T. ) ;
#144 = CARTESIAN_POINT ( 'NONE',  ( 0.0000000000000000000, 0.0000000000000000000, 0.0000000000000000000 ) ) ;
#145 = CIRCLE ( 'NONE', #48, 2.999999999999998224 ) ;
#146 = ORIENTED_EDGE ( 'NONE', *, *, #214, .F. ) ;
#147 = DIRECTION ( 'NONE',  ( 0.0000000000000000000, 0.0000000000000000000, 1.000000000000000000 ) ) ;
#148 = DIRECTION ( 'NONE',  ( -3.491481338843133355E-15, 4.327174794786742882E-16, -1.000000000000000000 ) ) ;
#149 = AXIS2_PLACEMENT_3D ( 'NONE', #142, #199, #242 ) ;
#150 = LOCAL_TIME ( 14, 57, 0.0000000000000000000, #113 ) ;
#151 = DIRECTION ( 'NONE',  ( 1.510825004591027855E-30, 1.000000000000000000, 4.327174794786742882E-16 ) ) ;
#152 = PERSON_AND_ORGANIZATION ( #117, #258 ) ;
#153 = EDGE_CURVE ( 'NONE', #55, #55, #123, .T. ) ;
#154 = PERSON_AND_ORGANIZATION_ROLE ( 'design_owner' ) ;
#155 = PERSON_AND_ORGANIZATION ( #117, #258 ) ;
#156 = COORDINATED_UNIVERSAL_TIME_OFFSET ( 1, 0, .AHEAD. ) ;
#157 = DIRECTION ( 'NONE',  ( 3.491481338843133355E-15, -1.224646799147353207E-16, 1.000000000000000000 ) ) ;
#158 = CARTESIAN_POINT ( 'NONE',  ( 9.531744055041754691E-14, 2.249639673992777927E-32, 27.30000000000000071 ) ) ;
#159 = ADVANCED_FACE ( 'NONE', ( #241, #24 ), #65, .T. ) ;
#160 = AXIS2_PLACEMENT_3D ( 'NONE', #189, #147, #167 ) ;
#161 = DIRECTION ( 'NONE',  ( -3.491481338843133355E-15, 1.224646799147353207E-16, -1.000000000000000000 ) ) ;
#162 = PLANE ( 'NONE',  #191 ) ;
#163 = CARTESIAN_POINT ( 'NONE',  ( 9.531744055041754691E-14, -2.100000000000017408, 27.30000000000000071 ) ) ;
#164 = CONICAL_SURFACE ( 'NONE', #220, 2.300000000000001599, 0.7853981633974337351 ) ;
#165 = CYLINDRICAL_SURFACE ( 'NONE', #1, 2.100000000000005418 ) ;
#166 = DIRECTION ( 'NONE',  ( 0.0000000000000000000, 1.000000000000000000, 0.0000000000000000000 ) ) ;
#167 = DIRECTION ( 'NONE',  ( 1.000000000000000000, 0.0000000000000000000, 0.0000000000000000000 ) ) ;
#168 = SHAPE_DEFINITION_REPRESENTATION ( #186, #218 ) ;
#169 = LOCAL_TIME ( 14, 57, 0.0000000000000000000, #170 ) ;
#170 = COORDINATED_UNIVERSAL_TIME_OFFSET ( 1, 0, .AHEAD. ) ;
#171 = DATE_AND_TIME ( #194, #150 ) ;
#172 = AXIS2_PLACEMENT_3D ( 'NONE', #22, #103, #64 ) ;
#173 = LOCAL_TIME ( 14, 57, 0.0000000000000000000, #156 ) ;
#174 = APPROVAL_DATE_TIME ( #19, #112 ) ;
#175 = FACE_OUTER_BOUND ( 'NONE', #183, .T. ) ;
#176 = AXIS2_PLACEMENT_3D ( 'NONE', #221, #157, #239 ) ;
#177 = APPROVAL_PERSON_ORGANIZATION ( #152, #112, #37 ) ;
#178 = CARTESIAN_POINT ( 'NONE',  ( 1.193835940802669519E-13, -1.479583102644767284E-14, 34.19282032302755425 ) ) ;
#179 = DIRECTION ( 'NONE',  ( -3.491481338843133355E-15, 4.327174794786742882E-16, -1.000000000000000000 ) ) ;
#180 = EDGE_LOOP ( 'NONE', ( #67 ) ) ;
#181 = DIRECTION ( 'NONE',  ( 0.0000000000000000000, 1.000000000000000000, 0.0000000000000000000 ) ) ;
#182 =( NAMED_UNIT ( * ) PLANE_ANGLE_UNIT ( ) SI_UNIT ( $, .RADIAN. ) );
#183 = EDGE_LOOP ( 'NONE', ( #25 ) ) ;
#184 = CARTESIAN_POINT ( 'NONE',  ( 2.758270257686075477E-13, 2.299999999999992273, 79.00000000000000000 ) ) ;
#185 = EDGE_CURVE ( 'NONE', #27, #27, #83, .T. ) ;
#186 = PRODUCT_DEFINITION_SHAPE ( 'NONE', 'NONE',  #192 ) ;
#187 = DIRECTION ( 'NONE',  ( -3.491481338843133355E-15, 4.327174794786742882E-16, -1.000000000000000000 ) ) ;
#188 = CARTESIAN_POINT ( 'NONE',  ( 2.733829888314172723E-13, 2.999999999999992006, 78.29999999999998295 ) ) ;
#189 = CARTESIAN_POINT ( 'NONE',  ( 0.0000000000000000000, 0.0000000000000000000, 0.0000000000000000000 ) ) ;
#190 = CALENDAR_DATE ( 2021, 13, 10 ) ;
#191 = AXIS2_PLACEMENT_3D ( 'NONE', #207, #130, #229 ) ;
#192 = PRODUCT_DEFINITION ( 'UNKNOWN', '', #254, #137 ) ;
#193 = PERSON_AND_ORGANIZATION_ROLE ( 'creator' ) ;
#194 = CALENDAR_DATE ( 2021, 13, 10 ) ;
#195 = DATE_AND_TIME ( #96, #173 ) ;
#196 = AXIS2_PLACEMENT_3D ( 'NONE', #78, #179, #43 ) ;
#197 = CC_DESIGN_APPROVAL ( #240, ( #254 ) ) ;
#198 = DIRECTION ( 'NONE',  ( 0.0000000000000000000, -1.000000000000000000, 0.0000000000000000000 ) ) ;
#199 = DIRECTION ( 'NONE',  ( -3.491481338843133355E-15, 1.224646799147353207E-16, -1.000000000000000000 ) ) ;
#200 = DIRECTION ( 'NONE',  ( 3.491481338843133355E-15, -4.327174794786742882E-16, 1.000000000000000000 ) ) ;
#201 = ORIENTED_EDGE ( 'NONE', *, *, #185, .T. ) ;
#202 = DIRECTION ( 'NONE',  ( -3.491481338843133355E-15, 1.224646799147353207E-16, -1.000000000000000000 ) ) ;
#203 = VERTEX_POINT ( 'NONE', #72 ) ;
#204 = EDGE_LOOP ( 'NONE', ( #201 ) ) ;
#205 = EDGE_CURVE ( 'NONE', #86, #86, #115, .T. ) ;
#206 = FACE_OUTER_BOUND ( 'NONE', #129, .T. ) ;
#207 = CARTESIAN_POINT ( 'NONE',  ( 2.758270257686075477E-13, 1.724723750061123112E-32, 79.00000000000000000 ) ) ;
#208 = PERSON_AND_ORGANIZATION ( #117, #258 ) ;
#209 = MANIFOLD_SOLID_BREP ( 'Corps-Déplacer/Copier1[2]', #70 ) ;
#210 = AXIS2_PLACEMENT_3D ( 'NONE', #141, #161, #181 ) ;
#211 = CC_DESIGN_APPROVAL ( #112, ( #71 ) ) ;
#212 = APPROVAL_DATE_TIME ( #195, #240 ) ;
#213 = CALENDAR_DATE ( 2021, 13, 10 ) ;
#214 = EDGE_CURVE ( 'NONE', #203, #203, #77, .T. ) ;
#215 = CIRCLE ( 'NONE', #196, 2.100000000000010303 ) ;
#216 = ADVANCED_FACE ( 'NONE', ( #143 ), #162, .F. ) ;
#217 = FACE_OUTER_BOUND ( 'NONE', #125, .T. ) ;
#218 = ADVANCED_BREP_SHAPE_REPRESENTATION ( '960157', ( #136, #209, #160 ), #243 ) ;
#219 = DIRECTION ( 'NONE',  ( -3.491481338843133355E-15, 1.224646799147353207E-16, -1.000000000000000000 ) ) ;
#220 = AXIS2_PLACEMENT_3D ( 'NONE', #223, #202, #80 ) ;
#221 = CARTESIAN_POINT ( 'NONE',  ( 3.812385842504467288E-15, -1.337204947137065176E-16, 1.091910702798618571 ) ) ;
#222 = UNCERTAINTY_MEASURE_WITH_UNIT (LENGTH_MEASURE( 1.000000000000000082E-05 ), #52, 'distance_accuracy_value', 'NONE');
#223 = CARTESIAN_POINT ( 'NONE',  ( 2.758270257686075477E-13, -9.674709713264090904E-15, 79.00000000000000000 ) ) ;
#224 = ORIENTED_EDGE ( 'NONE', *, *, #259, .T. ) ;
#225 = ORIENTED_EDGE ( 'NONE', *, *, #100, .F. ) ;
#226 = DIRECTION ( 'NONE',  ( -4.275831445896958607E-31, -1.000000000000000000, -1.224646799147353207E-16 ) ) ;
#227 = CARTESIAN_POINT ( 'NONE',  ( 9.531744055041754691E-14, 2.249639673992777927E-32, 27.30000000000000071 ) ) ;
#228 = EDGE_LOOP ( 'NONE', ( #146 ) ) ;
#229 = DIRECTION ( 'NONE',  ( 4.275831445896958607E-31, 1.000000000000000000, 1.224646799147353207E-16 ) ) ;
#230 = AXIS2_PLACEMENT_3D ( 'NONE', #178, #200, #81 ) ;
#231 = VERTEX_POINT ( 'NONE', #188 ) ;
#232 = FACE_OUTER_BOUND ( 'NONE', #7, .T. ) ;
#233 = DATE_TIME_ROLE ( 'classification_date' ) ;
#234 = PERSON_AND_ORGANIZATION ( #117, #258 ) ;
#235 = ADVANCED_FACE ( 'NONE', ( #69, #34 ), #105, .T. ) ;
#236 = PERSON_AND_ORGANIZATION_ROLE ( 'design_supplier' ) ;
#237 = DIRECTION ( 'NONE',  ( 4.517154673878414668E-30, 1.000000000000000000, 4.327174794786742882E-16 ) ) ;
#238 = CLOSED_SHELL ( 'NONE', ( #159, #44, #216, #235, #128, #68, #131 ) ) ;
#239 = DIRECTION ( 'NONE',  ( -5.135813185032641787E-31, -1.000000000000000000, -1.445602896647342861E-16 ) ) ;
#240 = APPROVAL ( #56, 'UNSPECIFIED' ) ;
#241 = FACE_OUTER_BOUND ( 'NONE', #30, .T. ) ;
#242 = DIRECTION ( 'NONE',  ( -3.668437989309011143E-31, -1.000000000000000000, -1.032573497605239636E-16 ) ) ;
#243 =( GEOMETRIC_REPRESENTATION_CONTEXT ( 3 ) GLOBAL_UNCERTAINTY_ASSIGNED_CONTEXT ( ( #222 ) ) GLOBAL_UNIT_ASSIGNED_CONTEXT ( ( #52, #182, #108 ) ) REPRESENTATION_CONTEXT ( 'NONE', 'WORKASPACE' ) );
#244 = CARTESIAN_POINT ( 'NONE',  ( 2.733829888314172723E-13, -9.588984437323771882E-15, 78.29999999999998295 ) ) ;
#245 = ORIENTED_EDGE ( 'NONE', *, *, #100, .T. ) ;
#246 = DIRECTION ( 'NONE',  ( 0.0000000000000000000, -1.000000000000000000, 0.0000000000000000000 ) ) ;
#247 = FACE_OUTER_BOUND ( 'NONE', #9, .T. ) ;
#248 = EDGE_LOOP ( 'NONE', ( #134 ) ) ;
#249 = DIRECTION ( 'NONE',  ( 3.491481338843133355E-15, -1.224646799147353207E-16, 1.000000000000000000 ) ) ;
#250 = DIRECTION ( 'NONE',  ( 1.510825004591027855E-30, 1.000000000000000000, 4.327174794786742882E-16 ) ) ;
#251 = DIRECTION ( 'NONE',  ( 3.491481338843133355E-15, -4.327174794786742882E-16, 1.000000000000000000 ) ) ;
#252 = CC_DESIGN_DATE_AND_TIME_ASSIGNMENT ( #59, #233, ( #71 ) ) ;
#253 = PERSON_AND_ORGANIZATION_ROLE ( 'creator' ) ;
#254 = PRODUCT_DEFINITION_FORMATION_WITH_SPECIFIED_SOURCE ( 'ANY', '', #6, .NOT_KNOWN. ) ;
#255 = ADVANCED_FACE ( 'NONE', ( #247 ), #12, .T. ) ;
#256 = APPROVAL_DATE_TIME ( #97, #3 ) ;
#257 = CIRCLE ( 'NONE', #210, 2.300000000000001599 ) ;
#258 = ORGANIZATION ( 'UNSPECIFIED', 'UNSPECIFIED', '' ) ;
#259 = EDGE_CURVE ( 'NONE', #29, #29, #145, .T. ) ;
#260 = AXIS2_PLACEMENT_3D ( 'NONE', #244, #63, #122 ) ;
#261 = CC_DESIGN_SECURITY_CLASSIFICATION ( #71, ( #254 ) ) ;
#262 = FACE_OUTER_BOUND ( 'NONE', #180, .T. ) ;
#263 = DIRECTION ( 'NONE',  ( 3.491481338843133355E-15, -1.224646799147353207E-16, 1.000000000000000000 ) ) ;
ENDSEC;
END-ISO-10303-21;
