ISO-10303-21;
HEADER;
FILE_DESCRIPTION (( 'STEP AP203' ),
    '1' );
FILE_NAME ('960156.step',
    '2021-10-13T12:57:00',
    ( '' ),
    ( '' ),
    'SwSTEP 2.0',
    'SolidWorks 2019',
    '' );
FILE_SCHEMA (( 'CONFIG_CONTROL_DESIGN' ));
ENDSEC;

DATA;
#1 = ADVANCED_FACE ( 'NONE', ( #177, #71 ), #219, .T. ) ;
#2 = APPROVAL_PERSON_ORGANIZATION ( #215, #106, #120 ) ;
#3 = CARTESIAN_POINT ( 'NONE',  ( 2.605130325711398050E-15, -2.050000000000004707, 0.7461389802457261133 ) ) ;
#4 = DIRECTION ( 'NONE',  ( 0.0000000000000000000, 0.0000000000000000000, 1.000000000000000000 ) ) ;
#5 = EDGE_LOOP ( 'NONE', ( #73 ) ) ;
#6 = LOCAL_TIME ( 14, 57, 0.0000000000000000000, #220 ) ;
#7 = VERTEX_POINT ( 'NONE', #131 ) ;
#8 = CARTESIAN_POINT ( 'NONE',  ( 1.172419282967044901E-13, -1.453040322380160808E-14, 33.57942286340598770 ) ) ;
#9 = ORIENTED_EDGE ( 'NONE', *, *, #130, .F. ) ;
#10 = PLANE ( 'NONE',  #43 ) ;
#11 = PERSON_AND_ORGANIZATION ( #175, #254 ) ;
#12 = ORIENTED_EDGE ( 'NONE', *, *, #82, .T. ) ;
#13 = PERSON_AND_ORGANIZATION_ROLE ( 'classification_officer' ) ;
#14 = DIRECTION ( 'NONE',  ( 0.0000000000000000000, -1.000000000000000000, 0.0000000000000000000 ) ) ;
#15 = PERSON_AND_ORGANIZATION ( #175, #254 ) ;
#16 = CALENDAR_DATE ( 2021, 13, 10 ) ;
#17 = FACE_OUTER_BOUND ( 'NONE', #193, .T. ) ;
#18 = APPROVAL_PERSON_ORGANIZATION ( #159, #117, #200 ) ;
#19 = DIRECTION ( 'NONE',  ( -3.491481338843133355E-15, 4.327174794786742882E-16, -1.000000000000000000 ) ) ;
#20 = ADVANCED_FACE ( 'NONE', ( #142 ), #108, .F. ) ;
#21 = LOCAL_TIME ( 14, 57, 0.0000000000000000000, #79 ) ;
#22 = CC_DESIGN_APPROVAL ( #117, ( #99 ) ) ;
#23 = APPROVAL ( #98, 'UNSPECIFIED' ) ;
#24 = CARTESIAN_POINT ( 'NONE',  ( 2.758270257686075477E-13, -9.674709713264090904E-15, 79.00000000000000000 ) ) ;
#25 = COORDINATED_UNIVERSAL_TIME_OFFSET ( 1, 0, .AHEAD. ) ;
#26 = DIRECTION ( 'NONE',  ( 1.510825004591027679E-30, 1.000000000000000000, 4.327174794786742389E-16 ) ) ;
#27 = CLOSED_SHELL ( 'NONE', ( #118, #1, #20, #100, #42, #160, #249 ) ) ;
#28 = APPLICATION_PROTOCOL_DEFINITION ( 'international standard', 'config_control_design', 1994, #52 ) ;
#29 = AXIS2_PLACEMENT_3D ( 'NONE', #153, #104, #80 ) ;
#30 = ADVANCED_FACE ( 'NONE', ( #46 ), #10, .T. ) ;
#31 = PERSON_AND_ORGANIZATION ( #175, #254 ) ;
#32 = FACE_OUTER_BOUND ( 'NONE', #86, .T. ) ;
#33 = PERSON_AND_ORGANIZATION ( #175, #254 ) ;
#34 = DIRECTION ( 'NONE',  ( -3.491481338843133355E-15, 1.224646799147353207E-16, -1.000000000000000000 ) ) ;
#35 = AXIS2_PLACEMENT_3D ( 'NONE', #201, #124, #26 ) ;
#36 = DIRECTION ( 'NONE',  ( 0.0000000000000000000, 1.000000000000000000, 0.0000000000000000000 ) ) ;
#37 = CARTESIAN_POINT ( 'NONE',  ( 2.758270257686075477E-13, 1.724723750061123112E-32, 79.00000000000000000 ) ) ;
#38 = DIRECTION ( 'NONE',  ( -3.491481338843133355E-15, 1.224646799147353207E-16, -1.000000000000000000 ) ) ;
#39 = APPLICATION_CONTEXT ( 'configuration controlled 3d designs of mechanical parts and assemblies' ) ;
#40 = EDGE_LOOP ( 'NONE', ( #255 ) ) ;
#41 = APPLICATION_PROTOCOL_DEFINITION ( 'international standard', 'config_control_design', 1994, #39 ) ;
#42 = ADVANCED_FACE ( 'NONE', ( #247, #95 ), #146, .T. ) ;
#43 = AXIS2_PLACEMENT_3D ( 'NONE', #244, #115, #66 ) ;
#44 = CIRCLE ( 'NONE', #110, 2.999999999999998224 ) ;
#45 = VERTEX_POINT ( 'NONE', #116 ) ;
#46 = FACE_OUTER_BOUND ( 'NONE', #198, .T. ) ;
#47 = ORIENTED_EDGE ( 'NONE', *, *, #149, .T. ) ;
#48 = CARTESIAN_POINT ( 'NONE',  ( 9.322255174711165428E-14, -2.050000000000016254, 26.69999999999999929 ) ) ;
#49 = CIRCLE ( 'NONE', #105, 2.050000000000004707 ) ;
#50 = LOCAL_TIME ( 14, 57, 0.0000000000000000000, #170 ) ;
#51 = EDGE_LOOP ( 'NONE', ( #165 ) ) ;
#52 = APPLICATION_CONTEXT ( 'configuration controlled 3d designs of mechanical parts and assemblies' ) ;
#53 = APPROVAL_DATE_TIME ( #152, #106 ) ;
#54 = FACE_OUTER_BOUND ( 'NONE', #119, .T. ) ;
#55 = PERSON_AND_ORGANIZATION ( #175, #254 ) ;
#56 = FACE_OUTER_BOUND ( 'NONE', #92, .T. ) ;
#57 = EDGE_LOOP ( 'NONE', ( #111 ) ) ;
#58 = AXIS2_PLACEMENT_3D ( 'NONE', #103, #178, #141 ) ;
#59 = PERSON_AND_ORGANIZATION_ROLE ( 'creator' ) ;
#60 = DIRECTION ( 'NONE',  ( -3.491481338843133355E-15, 1.224646799147353207E-16, -1.000000000000000000 ) ) ;
#61 = TOROIDAL_SURFACE ( 'NONE', #192, 3.050000000000009592, 0.9999999999999991118 ) ;
#62 = DIRECTION ( 'NONE',  ( 3.491481338843133355E-15, -1.224646799147353207E-16, 1.000000000000000000 ) ) ;
#63 = PRODUCT_RELATED_PRODUCT_CATEGORY ( 'detail', '', ( #67 ) ) ;
#64 = EDGE_CURVE ( 'NONE', #45, #45, #84, .T. ) ;
#65 = PLANE ( 'NONE',  #156 ) ;
#66 = DIRECTION ( 'NONE',  ( -4.275831445896958607E-31, -1.000000000000000000, -1.224646799147353207E-16 ) ) ;
#67 = PRODUCT ( '960156', '960156', '', ( #167 ) ) ;
#68 = DIRECTION ( 'NONE',  ( -5.135813185032641787E-31, -1.000000000000000000, -1.445602896647342861E-16 ) ) ;
#69 =( NAMED_UNIT ( * ) PLANE_ANGLE_UNIT ( ) SI_UNIT ( $, .RADIAN. ) );
#70 = DIRECTION ( 'NONE',  ( 0.0000000000000000000, 1.000000000000000000, 0.0000000000000000000 ) ) ;
#71 = FACE_BOUND ( 'NONE', #113, .T. ) ;
#72 = UNCERTAINTY_MEASURE_WITH_UNIT (LENGTH_MEASURE( 1.000000000000000082E-05 ), #250, 'distance_accuracy_value', 'NONE');
#73 = ORIENTED_EDGE ( 'NONE', *, *, #64, .F. ) ;
#74 = CALENDAR_DATE ( 2021, 13, 10 ) ;
#75 = CARTESIAN_POINT ( 'NONE',  ( 1.075376252363685200E-13, -1.332769836794316934E-14, 30.80000000000000071 ) ) ;
#76 = DATE_TIME_ROLE ( 'classification_date' ) ;
#77 = DIRECTION ( 'NONE',  ( 0.0000000000000000000, -1.000000000000000000, 0.0000000000000000000 ) ) ;
#78 = CC_DESIGN_PERSON_AND_ORGANIZATION_ASSIGNMENT ( #33, #237, ( #67 ) ) ;
#79 = COORDINATED_UNIVERSAL_TIME_OFFSET ( 1, 0, .AHEAD. ) ;
#80 = DIRECTION ( 'NONE',  ( 0.0000000000000000000, 1.000000000000000000, 0.0000000000000000000 ) ) ;
#81 = AXIS2_PLACEMENT_3D ( 'NONE', #205, #34, #77 ) ;
#82 = EDGE_CURVE ( 'NONE', #114, #114, #49, .T. ) ;
#83 = CARTESIAN_POINT ( 'NONE',  ( 3.812385842504467288E-15, -1.337204947137065176E-16, 1.091910702798618571 ) ) ;
#84 = CIRCLE ( 'NONE', #185, 2.183974596215572106 ) ;
#85 = CIRCLE ( 'NONE', #93, 2.050000000000009148 ) ;
#86 = EDGE_LOOP ( 'NONE', ( #248 ) ) ;
#87 = ADVANCED_FACE ( 'NONE', ( #223, #263 ), #262, .T. ) ;
#88 = DIRECTION ( 'NONE',  ( 3.491481338843133355E-15, -1.224646799147353207E-16, 1.000000000000000000 ) ) ;
#89 = ORIENTED_EDGE ( 'NONE', *, *, #209, .T. ) ;
#90 = CARTESIAN_POINT ( 'NONE',  ( 9.322255174711165428E-14, -2.050000000000016254, 26.69999999999999929 ) ) ;
#91 = DIRECTION ( 'NONE',  ( 1.000000000000000000, 0.0000000000000000000, 0.0000000000000000000 ) ) ;
#92 = EDGE_LOOP ( 'NONE', ( #12 ) ) ;
#93 = AXIS2_PLACEMENT_3D ( 'NONE', #75, #233, #235 ) ;
#94 = VERTEX_POINT ( 'NONE', #48 ) ;
#95 = FACE_OUTER_BOUND ( 'NONE', #40, .T. ) ;
#96 = CARTESIAN_POINT ( 'NONE',  ( 2.605130325711398839E-15, -9.137567138769991921E-17, 0.7461389802457263354 ) ) ;
#97 = EDGE_LOOP ( 'NONE', ( #227 ) ) ;
#98 = APPROVAL_STATUS ( 'not_yet_approved' ) ;
#99 = SECURITY_CLASSIFICATION ( '', '', #256 ) ;
#100 = ADVANCED_FACE ( 'NONE', ( #54, #137 ), #238, .T. ) ;
#101 = APPROVAL_DATE_TIME ( #218, #117 ) ;
#102 = CC_DESIGN_DATE_AND_TIME_ASSIGNMENT ( #195, #76, ( #99 ) ) ;
#103 = CARTESIAN_POINT ( 'NONE',  ( 0.0000000000000000000, 0.0000000000000000000, 0.0000000000000000000 ) ) ;
#104 = DIRECTION ( 'NONE',  ( -3.491481338843133355E-15, 1.224646799147353207E-16, -1.000000000000000000 ) ) ;
#105 = AXIS2_PLACEMENT_3D ( 'NONE', #96, #171, #239 ) ;
#106 = APPROVAL ( #143, 'UNSPECIFIED' ) ;
#107 = AXIS2_PLACEMENT_3D ( 'NONE', #8, #168, #151 ) ;
#108 = PLANE ( 'NONE',  #161 ) ;
#109 = AXIS2_PLACEMENT_3D ( 'NONE', #216, #121, #14 ) ;
#110 = AXIS2_PLACEMENT_3D ( 'NONE', #123, #183, #154 ) ;
#111 = ORIENTED_EDGE ( 'NONE', *, *, #182, .T. ) ;
#112 = MANIFOLD_SOLID_BREP ( 'Corps-Déplacer/Copier1[2]', #261 ) ;
#113 = EDGE_LOOP ( 'NONE', ( #47 ) ) ;
#114 = VERTEX_POINT ( 'NONE', #3 ) ;
#115 = DIRECTION ( 'NONE',  ( 3.491481338843133355E-15, -1.224646799147353207E-16, 1.000000000000000000 ) ) ;
#116 = CARTESIAN_POINT ( 'NONE',  ( 1.092833659057900803E-13, 2.183974596215558783, 31.30000000000000071 ) ) ;
#117 = APPROVAL ( #122, 'UNSPECIFIED' ) ;
#118 = ADVANCED_FACE ( 'NONE', ( #32, #203 ), #258, .T. ) ;
#119 = EDGE_LOOP ( 'NONE', ( #89 ) ) ;
#120 = APPROVAL_ROLE ( '' ) ;
#121 = DIRECTION ( 'NONE',  ( -3.491481338843133355E-15, 1.224646799147353207E-16, -1.000000000000000000 ) ) ;
#122 = APPROVAL_STATUS ( 'not_yet_approved' ) ;
#123 = CARTESIAN_POINT ( 'NONE',  ( 1.142182167604269353E-13, -1.415565889391149457E-14, 32.71339745962153245 ) ) ;
#124 = DIRECTION ( 'NONE',  ( -3.491481338843133355E-15, 4.327174794786742882E-16, -1.000000000000000000 ) ) ;
#125 = CONICAL_SURFACE ( 'NONE', #240, 2.999999999999992450, 1.221730476396026610 ) ;
#126 = PRODUCT_DEFINITION_SHAPE ( 'NONE', 'NONE',  #241 ) ;
#127 = EDGE_LOOP ( 'NONE', ( #208 ) ) ;
#128 = LOCAL_TIME ( 14, 57, 0.0000000000000000000, #253 ) ;
#129 = ADVANCED_BREP_SHAPE_REPRESENTATION ( '960156', ( #197, #112, #207 ), #162 ) ;
#130 = EDGE_CURVE ( 'NONE', #148, #148, #224, .T. ) ;
#131 = CARTESIAN_POINT ( 'NONE',  ( 1.075376252363685200E-13, 2.049999999999995826, 30.80000000000000071 ) ) ;
#132 = EDGE_LOOP ( 'NONE', ( #147 ) ) ;
#133 = DIRECTION ( 'NONE',  ( -4.275831445896958607E-31, -1.000000000000000000, -1.224646799147353207E-16 ) ) ;
#134 = DESIGN_CONTEXT ( 'detailed design', #52, 'design' ) ;
#135 =( NAMED_UNIT ( * ) SI_UNIT ( $, .STERADIAN. ) SOLID_ANGLE_UNIT ( ) );
#136 = PERSON_AND_ORGANIZATION_ROLE ( 'design_supplier' ) ;
#137 = FACE_OUTER_BOUND ( 'NONE', #150, .T. ) ;
#138 = APPROVAL_DATE_TIME ( #232, #23 ) ;
#139 = CC_DESIGN_APPROVAL ( #23, ( #236 ) ) ;
#140 = APPROVAL_ROLE ( '' ) ;
#141 = DIRECTION ( 'NONE',  ( 4.275831445896958607E-31, 1.000000000000000000, 1.224646799147353454E-16 ) ) ;
#142 = FACE_OUTER_BOUND ( 'NONE', #127, .T. ) ;
#143 = APPROVAL_STATUS ( 'not_yet_approved' ) ;
#144 = AXIS2_PLACEMENT_3D ( 'NONE', #158, #60, #36 ) ;
#145 = CC_DESIGN_DATE_AND_TIME_ASSIGNMENT ( #202, #260, ( #241 ) ) ;
#146 = CONICAL_SURFACE ( 'NONE', #107, 3.500000000000012434, 0.5235987755983005920 ) ;
#147 = ORIENTED_EDGE ( 'NONE', *, *, #182, .F. ) ;
#148 = VERTEX_POINT ( 'NONE', #90 ) ;
#149 = EDGE_CURVE ( 'NONE', #191, #191, #252, .T. ) ;
#150 = EDGE_LOOP ( 'NONE', ( #9 ) ) ;
#151 = DIRECTION ( 'NONE',  ( 0.0000000000000000000, -1.000000000000000000, 0.0000000000000000000 ) ) ;
#152 = DATE_AND_TIME ( #234, #128 ) ;
#153 = CARTESIAN_POINT ( 'NONE',  ( 2.733829888314172723E-13, -9.588984437323771882E-15, 78.29999999999998295 ) ) ;
#154 = DIRECTION ( 'NONE',  ( 0.0000000000000000000, -1.000000000000000000, 0.0000000000000000000 ) ) ;
#155 = DIRECTION ( 'NONE',  ( 0.0000000000000000000, 1.000000000000000000, 0.0000000000000000000 ) ) ;
#156 = AXIS2_PLACEMENT_3D ( 'NONE', #229, #88, #133 ) ;
#157 = CALENDAR_DATE ( 2021, 13, 10 ) ;
#158 = CARTESIAN_POINT ( 'NONE',  ( 2.758270257686075477E-13, -9.674709713264090904E-15, 79.00000000000000000 ) ) ;
#159 = PERSON_AND_ORGANIZATION ( #175, #254 ) ;
#160 = ADVANCED_FACE ( 'NONE', ( #181, #17 ), #61, .F. ) ;
#161 = AXIS2_PLACEMENT_3D ( 'NONE', #37, #38, #206 ) ;
#162 =( GEOMETRIC_REPRESENTATION_CONTEXT ( 3 ) GLOBAL_UNCERTAINTY_ASSIGNED_CONTEXT ( ( #72 ) ) GLOBAL_UNIT_ASSIGNED_CONTEXT ( ( #250, #69, #135 ) ) REPRESENTATION_CONTEXT ( 'NONE', 'WORKASPACE' ) );
#163 = ORIENTED_EDGE ( 'NONE', *, *, #64, .T. ) ;
#164 = CARTESIAN_POINT ( 'NONE',  ( 2.758270257686075477E-13, 2.299999999999992273, 79.00000000000000000 ) ) ;
#165 = ORIENTED_EDGE ( 'NONE', *, *, #166, .T. ) ;
#166 = EDGE_CURVE ( 'NONE', #94, #94, #225, .T. ) ;
#167 = MECHANICAL_CONTEXT ( 'NONE', #39, 'mechanical' ) ;
#168 = DIRECTION ( 'NONE',  ( 3.491481338843133355E-15, -4.327174794786742882E-16, 1.000000000000000000 ) ) ;
#169 = FACE_OUTER_BOUND ( 'NONE', #243, .T. ) ;
#170 = COORDINATED_UNIVERSAL_TIME_OFFSET ( 1, 0, .AHEAD. ) ;
#171 = DIRECTION ( 'NONE',  ( -3.491481338843133355E-15, 1.224646799147353207E-16, -1.000000000000000000 ) ) ;
#172 = AXIS2_PLACEMENT_3D ( 'NONE', #176, #19, #231 ) ;
#173 = CIRCLE ( 'NONE', #29, 3.000000000000001332 ) ;
#174 = CARTESIAN_POINT ( 'NONE',  ( 1.075376252363685200E-13, -1.344410693882025498E-14, 30.80000000000000071 ) ) ;
#175 = PERSON ( 'UNSPECIFIED', 'UNSPECIFIED', 'UNSPECIFIED', ('UNSPECIFIED'), ('UNSPECIFIED'), ('UNSPECIFIED') ) ;
#176 = CARTESIAN_POINT ( 'NONE',  ( 0.0000000000000000000, 0.0000000000000000000, 0.0000000000000000000 ) ) ;
#177 = FACE_OUTER_BOUND ( 'NONE', #132, .T. ) ;
#178 = DIRECTION ( 'NONE',  ( -3.491481338843133355E-15, 1.224646799147353207E-16, -1.000000000000000000 ) ) ;
#179 = AXIS2_PLACEMENT_3D ( 'NONE', #24, #259, #155 ) ;
#180 = PERSON_AND_ORGANIZATION ( #175, #254 ) ;
#181 = FACE_OUTER_BOUND ( 'NONE', #97, .T. ) ;
#182 = EDGE_CURVE ( 'NONE', #212, #212, #173, .T. ) ;
#183 = DIRECTION ( 'NONE',  ( 3.491481338843133355E-15, -4.327174794786742882E-16, 1.000000000000000000 ) ) ;
#184 = CC_DESIGN_PERSON_AND_ORGANIZATION_ASSIGNMENT ( #31, #13, ( #99 ) ) ;
#185 = AXIS2_PLACEMENT_3D ( 'NONE', #214, #213, #70 ) ;
#186 = ORIENTED_EDGE ( 'NONE', *, *, #166, .F. ) ;
#187 = LOCAL_TIME ( 14, 57, 0.0000000000000000000, #25 ) ;
#188 = ORIENTED_EDGE ( 'NONE', *, *, #130, .T. ) ;
#189 = CARTESIAN_POINT ( 'NONE',  ( 0.0000000000000000000, 0.0000000000000000000, 0.0000000000000000000 ) ) ;
#190 = EDGE_LOOP ( 'NONE', ( #228 ) ) ;
#191 = VERTEX_POINT ( 'NONE', #164 ) ;
#192 = AXIS2_PLACEMENT_3D ( 'NONE', #174, #221, #257 ) ;
#193 = EDGE_LOOP ( 'NONE', ( #163 ) ) ;
#194 = CARTESIAN_POINT ( 'NONE',  ( 2.733829888314172723E-13, 2.999999999999992006, 78.29999999999998295 ) ) ;
#195 = DATE_AND_TIME ( #74, #50 ) ;
#196 = PERSON_AND_ORGANIZATION_ROLE ( 'creator' ) ;
#197 = MANIFOLD_SOLID_BREP ( 'Corps-Déplacer/Copier1[1]', #27 ) ;
#198 = EDGE_LOOP ( 'NONE', ( #186 ) ) ;
#199 = EDGE_CURVE ( 'NONE', #210, #210, #44, .T. ) ;
#200 = APPROVAL_ROLE ( '' ) ;
#201 = CARTESIAN_POINT ( 'NONE',  ( 0.0000000000000000000, 0.0000000000000000000, 0.0000000000000000000 ) ) ;
#202 = DATE_AND_TIME ( #157, #187 ) ;
#203 = FACE_OUTER_BOUND ( 'NONE', #57, .T. ) ;
#204 = CC_DESIGN_SECURITY_CLASSIFICATION ( #99, ( #236 ) ) ;
#205 = CARTESIAN_POINT ( 'NONE',  ( 9.322255174711165428E-14, -1.155355670208060381E-14, 26.69999999999999929 ) ) ;
#206 = DIRECTION ( 'NONE',  ( 4.275831445896958607E-31, 1.000000000000000000, 1.224646799147353207E-16 ) ) ;
#207 = AXIS2_PLACEMENT_3D ( 'NONE', #189, #4, #91 ) ;
#208 = ORIENTED_EDGE ( 'NONE', *, *, #149, .F. ) ;
#209 = EDGE_CURVE ( 'NONE', #7, #7, #85, .T. ) ;
#210 = VERTEX_POINT ( 'NONE', #251 ) ;
#211 = CC_DESIGN_PERSON_AND_ORGANIZATION_ASSIGNMENT ( #55, #196, ( #236 ) ) ;
#212 = VERTEX_POINT ( 'NONE', #194 ) ;
#213 = DIRECTION ( 'NONE',  ( -3.491481338843133355E-15, 4.327174794786742882E-16, -1.000000000000000000 ) ) ;
#214 = CARTESIAN_POINT ( 'NONE',  ( 1.092833659057900803E-13, -1.354405710768250491E-14, 31.30000000000000071 ) ) ;
#215 = PERSON_AND_ORGANIZATION ( #175, #254 ) ;
#216 = CARTESIAN_POINT ( 'NONE',  ( 9.322255174711165428E-14, -1.155355670208060381E-14, 26.69999999999999929 ) ) ;
#217 = ADVANCED_FACE ( 'NONE', ( #56 ), #125, .T. ) ;
#218 = DATE_AND_TIME ( #16, #21 ) ;
#219 = CONICAL_SURFACE ( 'NONE', #179, 2.300000000000001599, 0.7853981633974337351 ) ;
#220 = COORDINATED_UNIVERSAL_TIME_OFFSET ( 1, 0, .AHEAD. ) ;
#221 = DIRECTION ( 'NONE',  ( -3.491481338843133355E-15, 4.327174794786742882E-16, -1.000000000000000000 ) ) ;
#222 = CALENDAR_DATE ( 2021, 13, 10 ) ;
#223 = FACE_OUTER_BOUND ( 'NONE', #51, .T. ) ;
#224 = CIRCLE ( 'NONE', #109, 2.050000000000004707 ) ;
#225 = CIRCLE ( 'NONE', #81, 2.050000000000004707 ) ;
#226 = CC_DESIGN_PERSON_AND_ORGANIZATION_ASSIGNMENT ( #180, #59, ( #241 ) ) ;
#227 = ORIENTED_EDGE ( 'NONE', *, *, #209, .F. ) ;
#228 = ORIENTED_EDGE ( 'NONE', *, *, #82, .F. ) ;
#229 = CARTESIAN_POINT ( 'NONE',  ( 9.322255174711165428E-14, 2.249639673992777927E-32, 26.69999999999999929 ) ) ;
#230 = SHAPE_DEFINITION_REPRESENTATION ( #126, #129 ) ;
#231 = DIRECTION ( 'NONE',  ( 1.510825004591027679E-30, 1.000000000000000000, 4.327174794786742389E-16 ) ) ;
#232 = DATE_AND_TIME ( #222, #6 ) ;
#233 = DIRECTION ( 'NONE',  ( -3.491481338843133355E-15, 4.327174794786742882E-16, -1.000000000000000000 ) ) ;
#234 = CALENDAR_DATE ( 2021, 13, 10 ) ;
#235 = DIRECTION ( 'NONE',  ( 0.0000000000000000000, 1.000000000000000000, 0.0000000000000000000 ) ) ;
#236 = PRODUCT_DEFINITION_FORMATION_WITH_SPECIFIED_SOURCE ( 'ANY', '', #67, .NOT_KNOWN. ) ;
#237 = PERSON_AND_ORGANIZATION_ROLE ( 'design_owner' ) ;
#238 = CYLINDRICAL_SURFACE ( 'NONE', #35, 2.050000000000004707 ) ;
#239 = DIRECTION ( 'NONE',  ( -3.757912086609231984E-31, -1.000000000000000000, -1.057758217059026266E-16 ) ) ;
#240 = AXIS2_PLACEMENT_3D ( 'NONE', #83, #62, #68 ) ;
#241 = PRODUCT_DEFINITION ( 'UNKNOWN', '', #236, #134 ) ;
#242 = CC_DESIGN_PERSON_AND_ORGANIZATION_ASSIGNMENT ( #11, #136, ( #236 ) ) ;
#243 = EDGE_LOOP ( 'NONE', ( #188 ) ) ;
#244 = CARTESIAN_POINT ( 'NONE',  ( 9.322255174711165428E-14, 2.249639673992777927E-32, 26.69999999999999929 ) ) ;
#245 = CC_DESIGN_APPROVAL ( #106, ( #241 ) ) ;
#246 = APPROVAL_PERSON_ORGANIZATION ( #15, #23, #140 ) ;
#247 = FACE_BOUND ( 'NONE', #5, .T. ) ;
#248 = ORIENTED_EDGE ( 'NONE', *, *, #199, .T. ) ;
#249 = ADVANCED_FACE ( 'NONE', ( #169 ), #65, .F. ) ;
#250 =( LENGTH_UNIT ( ) NAMED_UNIT ( * ) SI_UNIT ( .MILLI., .METRE. ) );
#251 = CARTESIAN_POINT ( 'NONE',  ( 1.142182167604269353E-13, -3.000000000000012434, 32.71339745962153245 ) ) ;
#252 = CIRCLE ( 'NONE', #144, 2.300000000000001599 ) ;
#253 = COORDINATED_UNIVERSAL_TIME_OFFSET ( 1, 0, .AHEAD. ) ;
#254 = ORGANIZATION ( 'UNSPECIFIED', 'UNSPECIFIED', '' ) ;
#255 = ORIENTED_EDGE ( 'NONE', *, *, #199, .F. ) ;
#256 = SECURITY_CLASSIFICATION_LEVEL ( 'unclassified' ) ;
#257 = DIRECTION ( 'NONE',  ( -1.480164943273714842E-30, 1.000000000000000000, 4.327174794786743375E-16 ) ) ;
#258 = CYLINDRICAL_SURFACE ( 'NONE', #58, 2.999999999999998224 ) ;
#259 = DIRECTION ( 'NONE',  ( -3.491481338843133355E-15, 1.224646799147353207E-16, -1.000000000000000000 ) ) ;
#260 = DATE_TIME_ROLE ( 'creation_date' ) ;
#261 = CLOSED_SHELL ( 'NONE', ( #217, #87, #30 ) ) ;
#262 = CYLINDRICAL_SURFACE ( 'NONE', #172, 2.050000000000004707 ) ;
#263 = FACE_OUTER_BOUND ( 'NONE', #190, .T. ) ;
ENDSEC;
END-ISO-10303-21;
