ISO-10303-21;
HEADER;
FILE_DESCRIPTION (( 'STEP AP203' ),
    '1' );
FILE_NAME ('960155.step',
    '2021-10-13T12:56:59',
    ( '' ),
    ( '' ),
    'SwSTEP 2.0',
    'SolidWorks 2019',
    '' );
FILE_SCHEMA (( 'CONFIG_CONTROL_DESIGN' ));
ENDSEC;

DATA;
#1 = CIRCLE ( 'NONE', #259, 2.000000000000004885 ) ;
#2 = FACE_OUTER_BOUND ( 'NONE', #37, .T. ) ;
#3 = DIRECTION ( 'NONE',  ( 3.491481338843133355E-15, -4.327174794786742882E-16, 1.000000000000000000 ) ) ;
#4 = EDGE_CURVE ( 'NONE', #69, #69, #255, .T. ) ;
#5 = CARTESIAN_POINT ( 'NONE',  ( 9.077851480992146724E-14, -2.000000000000015987, 26.00000000000000000 ) ) ;
#6 = CIRCLE ( 'NONE', #250, 2.133974596215571840 ) ;
#7 = EDGE_CURVE ( 'NONE', #231, #231, #1, .T. ) ;
#8 = CARTESIAN_POINT ( 'NONE',  ( 0.0000000000000000000, 0.0000000000000000000, 0.0000000000000000000 ) ) ;
#9 = LOCAL_TIME ( 14, 56, 59.00000000000000000, #153 ) ;
#10 = COORDINATED_UNIVERSAL_TIME_OFFSET ( 1, 0, .AHEAD. ) ;
#11 = EDGE_CURVE ( 'NONE', #113, #113, #152, .T. ) ;
#12 = CALENDAR_DATE ( 2021, 13, 10 ) ;
#13 = SHAPE_DEFINITION_REPRESENTATION ( #194, #128 ) ;
#14 = AXIS2_PLACEMENT_3D ( 'NONE', #40, #227, #225 ) ;
#15 = ORIENTED_EDGE ( 'NONE', *, *, #171, .T. ) ;
#16 = APPROVAL ( #234, 'UNSPECIFIED' ) ;
#17 = EDGE_LOOP ( 'NONE', ( #102 ) ) ;
#18 = DIRECTION ( 'NONE',  ( 0.0000000000000000000, 1.000000000000000000, 0.0000000000000000000 ) ) ;
#19 = CARTESIAN_POINT ( 'NONE',  ( 1.047444401652940007E-13, -1.298152438436022707E-14, 30.00000000000000000 ) ) ;
#20 = TOROIDAL_SURFACE ( 'NONE', #66, 3.000000000000009770, 0.9999999999999991118 ) ;
#21 = PLANE ( 'NONE',  #186 ) ;
#22 = DIRECTION ( 'NONE',  ( 3.491481338843133355E-15, -1.224646799147353207E-16, 1.000000000000000000 ) ) ;
#23 = CARTESIAN_POINT ( 'NONE',  ( 2.758270257686075477E-13, 2.299999999999992273, 79.00000000000000000 ) ) ;
#24 = CARTESIAN_POINT ( 'NONE',  ( 1.047444401652940007E-13, 1.999999999999996669, 30.00000000000000000 ) ) ;
#25 = ADVANCED_FACE ( 'NONE', ( #80, #143 ), #20, .F. ) ;
#26 = CYLINDRICAL_SURFACE ( 'NONE', #184, 2.999999999999998224 ) ;
#27 = MANIFOLD_SOLID_BREP ( 'Corps-Déplacer/Copier1[1]', #70 ) ;
#28 =( LENGTH_UNIT ( ) NAMED_UNIT ( * ) SI_UNIT ( .MILLI., .METRE. ) );
#29 = AXIS2_PLACEMENT_3D ( 'NONE', #52, #116, #49 ) ;
#30 = DIRECTION ( 'NONE',  ( 3.491481338843133355E-15, -4.327174794786742882E-16, 1.000000000000000000 ) ) ;
#31 = MANIFOLD_SOLID_BREP ( 'Corps-Déplacer/Copier1[2]', #173 ) ;
#32 = APPROVAL_ROLE ( '' ) ;
#33 = ORIENTED_EDGE ( 'NONE', *, *, #261, .F. ) ;
#34 = LOCAL_TIME ( 14, 56, 59.00000000000000000, #252 ) ;
#35 = EDGE_LOOP ( 'NONE', ( #96 ) ) ;
#36 = PERSON_AND_ORGANIZATION ( #122, #47 ) ;
#37 = EDGE_LOOP ( 'NONE', ( #140 ) ) ;
#38 = CC_DESIGN_PERSON_AND_ORGANIZATION_ASSIGNMENT ( #118, #257, ( #224 ) ) ;
#39 = EDGE_LOOP ( 'NONE', ( #144 ) ) ;
#40 = CARTESIAN_POINT ( 'NONE',  ( 2.758270257686075477E-13, -9.674709713264090904E-15, 79.00000000000000000 ) ) ;
#41 = DIRECTION ( 'NONE',  ( -5.135813185032641787E-31, -1.000000000000000000, -1.445602896647342861E-16 ) ) ;
#42 = AXIS2_PLACEMENT_3D ( 'NONE', #187, #3, #189 ) ;
#43 = CARTESIAN_POINT ( 'NONE',  ( 1.047444401652940007E-13, -1.301042606982605321E-14, 30.00000000000000000 ) ) ;
#44 = PLANE ( 'NONE',  #76 ) ;
#45 = PRODUCT ( '960155', '960155', '', ( #219 ) ) ;
#46 = FACE_OUTER_BOUND ( 'NONE', #198, .T. ) ;
#47 = ORGANIZATION ( 'UNSPECIFIED', 'UNSPECIFIED', '' ) ;
#48 =( NAMED_UNIT ( * ) SI_UNIT ( $, .STERADIAN. ) SOLID_ANGLE_UNIT ( ) );
#49 = DIRECTION ( 'NONE',  ( 0.0000000000000000000, 1.000000000000000000, 0.0000000000000000000 ) ) ;
#50 = CARTESIAN_POINT ( 'NONE',  ( 1.064901808347155610E-13, 2.133974596215558961, 30.50000000000000000 ) ) ;
#51 = CIRCLE ( 'NONE', #84, 2.000000000000009770 ) ;
#52 = CARTESIAN_POINT ( 'NONE',  ( 2.758270257686075477E-13, -9.674709713264090904E-15, 79.00000000000000000 ) ) ;
#53 = CC_DESIGN_PERSON_AND_ORGANIZATION_ASSIGNMENT ( #74, #176, ( #224 ) ) ;
#54 = CIRCLE ( 'NONE', #14, 2.300000000000001599 ) ;
#55 = PERSON_AND_ORGANIZATION_ROLE ( 'design_owner' ) ;
#56 = EDGE_LOOP ( 'NONE', ( #142 ) ) ;
#57 = ORIENTED_EDGE ( 'NONE', *, *, #7, .F. ) ;
#58 =( GEOMETRIC_REPRESENTATION_CONTEXT ( 3 ) GLOBAL_UNCERTAINTY_ASSIGNED_CONTEXT ( ( #203 ) ) GLOBAL_UNIT_ASSIGNED_CONTEXT ( ( #28, #249, #48 ) ) REPRESENTATION_CONTEXT ( 'NONE', 'WORKASPACE' ) );
#59 = DIRECTION ( 'NONE',  ( -3.491481338843133355E-15, 4.327174794786742882E-16, -1.000000000000000000 ) ) ;
#60 = DIRECTION ( 'NONE',  ( -3.851859888774462510E-31, -1.000000000000000000, -1.084202172485501846E-16 ) ) ;
#61 = DIRECTION ( 'NONE',  ( -3.491481338843133355E-15, 1.224646799147353207E-16, -1.000000000000000000 ) ) ;
#62 = FACE_OUTER_BOUND ( 'NONE', #35, .T. ) ;
#63 = CONICAL_SURFACE ( 'NONE', #115, 2.999999999999992450, 1.221730476396026610 ) ;
#64 = CC_DESIGN_DATE_AND_TIME_ASSIGNMENT ( #193, #71, ( #131 ) ) ;
#65 = CARTESIAN_POINT ( 'NONE',  ( 2.541590561669657086E-15, -2.000000000000004885, 0.7279404685324157853 ) ) ;
#66 = AXIS2_PLACEMENT_3D ( 'NONE', #43, #167, #240 ) ;
#67 = EDGE_CURVE ( 'NONE', #170, #170, #54, .T. ) ;
#68 = DIRECTION ( 'NONE',  ( 1.000000000000000000, 0.0000000000000000000, 0.0000000000000000000 ) ) ;
#69 = VERTEX_POINT ( 'NONE', #65 ) ;
#70 = CLOSED_SHELL ( 'NONE', ( #226, #209, #90, #117, #218, #25, #199 ) ) ;
#71 = DATE_TIME_ROLE ( 'classification_date' ) ;
#72 = PRODUCT_DEFINITION ( 'UNKNOWN', '', #224, #155 ) ;
#73 = APPROVAL_DATE_TIME ( #232, #16 ) ;
#74 = PERSON_AND_ORGANIZATION ( #122, #47 ) ;
#75 = ORIENTED_EDGE ( 'NONE', *, *, #171, .F. ) ;
#76 = AXIS2_PLACEMENT_3D ( 'NONE', #208, #263, #223 ) ;
#77 = PERSON_AND_ORGANIZATION_ROLE ( 'creator' ) ;
#78 = CARTESIAN_POINT ( 'NONE',  ( 9.077851480992146724E-14, -1.125065446644553149E-14, 26.00000000000000000 ) ) ;
#79 = LOCAL_TIME ( 14, 56, 59.00000000000000000, #195 ) ;
#80 = FACE_OUTER_BOUND ( 'NONE', #123, .T. ) ;
#81 = CARTESIAN_POINT ( 'NONE',  ( 2.733829888314172723E-13, -9.588984437323771882E-15, 78.29999999999998295 ) ) ;
#82 = CARTESIAN_POINT ( 'NONE',  ( 9.077851480992146724E-14, -1.125065446644553149E-14, 26.00000000000000000 ) ) ;
#83 = DIRECTION ( 'NONE',  ( -3.491481338843133355E-15, 4.327174794786742882E-16, -1.000000000000000000 ) ) ;
#84 = AXIS2_PLACEMENT_3D ( 'NONE', #19, #83, #141 ) ;
#85 = DIRECTION ( 'NONE',  ( 4.275831445896958607E-31, 1.000000000000000000, 1.224646799147353454E-16 ) ) ;
#86 = VERTEX_POINT ( 'NONE', #50 ) ;
#87 = AXIS2_PLACEMENT_3D ( 'NONE', #229, #149, #190 ) ;
#88 = CARTESIAN_POINT ( 'NONE',  ( 0.0000000000000000000, 0.0000000000000000000, 0.0000000000000000000 ) ) ;
#89 = FACE_OUTER_BOUND ( 'NONE', #202, .T. ) ;
#90 = ADVANCED_FACE ( 'NONE', ( #205 ), #44, .F. ) ;
#91 = EDGE_LOOP ( 'NONE', ( #183 ) ) ;
#92 = LOCAL_TIME ( 14, 56, 59.00000000000000000, #10 ) ;
#93 = APPROVAL_DATE_TIME ( #216, #134 ) ;
#94 = ORIENTED_EDGE ( 'NONE', *, *, #7, .T. ) ;
#95 = APPROVAL_DATE_TIME ( #98, #147 ) ;
#96 = ORIENTED_EDGE ( 'NONE', *, *, #121, .T. ) ;
#97 = ADVANCED_FACE ( 'NONE', ( #103 ), #63, .T. ) ;
#98 = DATE_AND_TIME ( #12, #79 ) ;
#99 = APPLICATION_CONTEXT ( 'configuration controlled 3d designs of mechanical parts and assemblies' ) ;
#100 = CONICAL_SURFACE ( 'NONE', #29, 2.300000000000001599, 0.7853981633974337351 ) ;
#101 = APPROVAL_ROLE ( '' ) ;
#102 = ORIENTED_EDGE ( 'NONE', *, *, #4, .T. ) ;
#103 = FACE_OUTER_BOUND ( 'NONE', #17, .T. ) ;
#104 = FACE_OUTER_BOUND ( 'NONE', #120, .T. ) ;
#105 = DIRECTION ( 'NONE',  ( -4.275831445896958607E-31, -1.000000000000000000, -1.224646799147353207E-16 ) ) ;
#106 = CARTESIAN_POINT ( 'NONE',  ( 9.077851480992146724E-14, 2.249639673992778475E-32, 26.00000000000000000 ) ) ;
#107 = CC_DESIGN_DATE_AND_TIME_ASSIGNMENT ( #124, #180, ( #72 ) ) ;
#108 = FACE_OUTER_BOUND ( 'NONE', #220, .T. ) ;
#109 = APPLICATION_CONTEXT ( 'configuration controlled 3d designs of mechanical parts and assemblies' ) ;
#110 = VERTEX_POINT ( 'NONE', #228 ) ;
#111 = DIRECTION ( 'NONE',  ( -4.275831445896958607E-31, -1.000000000000000000, -1.224646799147353207E-16 ) ) ;
#112 = DIRECTION ( 'NONE',  ( 3.491481338843133355E-15, -1.224646799147353207E-16, 1.000000000000000000 ) ) ;
#113 = VERTEX_POINT ( 'NONE', #210 ) ;
#114 = AXIS2_PLACEMENT_3D ( 'NONE', #260, #127, #105 ) ;
#115 = AXIS2_PLACEMENT_3D ( 'NONE', #242, #22, #41 ) ;
#116 = DIRECTION ( 'NONE',  ( -3.491481338843133355E-15, 1.224646799147353207E-16, -1.000000000000000000 ) ) ;
#117 = ADVANCED_FACE ( 'NONE', ( #62, #108 ), #169, .T. ) ;
#118 = PERSON_AND_ORGANIZATION ( #122, #47 ) ;
#119 = APPLICATION_PROTOCOL_DEFINITION ( 'international standard', 'config_control_design', 1994, #109 ) ;
#120 = EDGE_LOOP ( 'NONE', ( #201 ) ) ;
#121 = EDGE_CURVE ( 'NONE', #130, #130, #51, .T. ) ;
#122 = PERSON ( 'UNSPECIFIED', 'UNSPECIFIED', 'UNSPECIFIED', ('UNSPECIFIED'), ('UNSPECIFIED'), ('UNSPECIFIED') ) ;
#123 = EDGE_LOOP ( 'NONE', ( #136 ) ) ;
#124 = DATE_AND_TIME ( #233, #191 ) ;
#125 = EDGE_LOOP ( 'NONE', ( #33 ) ) ;
#126 = CC_DESIGN_PERSON_AND_ORGANIZATION_ASSIGNMENT ( #217, #55, ( #45 ) ) ;
#127 = DIRECTION ( 'NONE',  ( 3.491481338843133355E-15, -1.224646799147353207E-16, 1.000000000000000000 ) ) ;
#128 = ADVANCED_BREP_SHAPE_REPRESENTATION ( '960155', ( #27, #31, #181 ), #58 ) ;
#129 = DIRECTION ( 'NONE',  ( 0.0000000000000000000, 1.000000000000000000, 0.0000000000000000000 ) ) ;
#130 = VERTEX_POINT ( 'NONE', #24 ) ;
#131 = SECURITY_CLASSIFICATION ( '', '', #215 ) ;
#132 = CARTESIAN_POINT ( 'NONE',  ( 1.117274028429801664E-13, -3.000000000000011990, 31.99999999999997158 ) ) ;
#133 = APPLICATION_PROTOCOL_DEFINITION ( 'international standard', 'config_control_design', 1994, #99 ) ;
#134 = APPROVAL ( #161, 'UNSPECIFIED' ) ;
#135 = APPROVAL_ROLE ( '' ) ;
#136 = ORIENTED_EDGE ( 'NONE', *, *, #121, .F. ) ;
#137 = CIRCLE ( 'NONE', #206, 3.000000000000001332 ) ;
#138 = CALENDAR_DATE ( 2021, 13, 10 ) ;
#139 = EDGE_LOOP ( 'NONE', ( #15 ) ) ;
#140 = ORIENTED_EDGE ( 'NONE', *, *, #261, .T. ) ;
#141 = DIRECTION ( 'NONE',  ( 0.0000000000000000000, 1.000000000000000000, 0.0000000000000000000 ) ) ;
#142 = ORIENTED_EDGE ( 'NONE', *, *, #196, .T. ) ;
#143 = FACE_OUTER_BOUND ( 'NONE', #139, .T. ) ;
#144 = ORIENTED_EDGE ( 'NONE', *, *, #4, .F. ) ;
#145 = DIRECTION ( 'NONE',  ( 1.510825004591027855E-30, 1.000000000000000000, 4.327174794786742882E-16 ) ) ;
#146 = FACE_OUTER_BOUND ( 'NONE', #39, .T. ) ;
#147 = APPROVAL ( #237, 'UNSPECIFIED' ) ;
#148 = CC_DESIGN_APPROVAL ( #147, ( #72 ) ) ;
#149 = DIRECTION ( 'NONE',  ( -3.491481338843133355E-15, 4.327174794786742882E-16, -1.000000000000000000 ) ) ;
#150 = CC_DESIGN_PERSON_AND_ORGANIZATION_ASSIGNMENT ( #236, #77, ( #72 ) ) ;
#151 = FACE_BOUND ( 'NONE', #238, .T. ) ;
#152 = CIRCLE ( 'NONE', #164, 2.000000000000004885 ) ;
#153 = COORDINATED_UNIVERSAL_TIME_OFFSET ( 1, 0, .AHEAD. ) ;
#154 = COORDINATED_UNIVERSAL_TIME_OFFSET ( 1, 0, .AHEAD. ) ;
#155 = DESIGN_CONTEXT ( 'detailed design', #109, 'design' ) ;
#156 = PERSON_AND_ORGANIZATION ( #122, #47 ) ;
#157 = ORIENTED_EDGE ( 'NONE', *, *, #11, .T. ) ;
#158 = APPROVAL_PERSON_ORGANIZATION ( #36, #147, #101 ) ;
#159 = PERSON_AND_ORGANIZATION ( #122, #47 ) ;
#160 = ORIENTED_EDGE ( 'NONE', *, *, #67, .T. ) ;
#161 = APPROVAL_STATUS ( 'not_yet_approved' ) ;
#162 = CC_DESIGN_PERSON_AND_ORGANIZATION_ASSIGNMENT ( #178, #200, ( #131 ) ) ;
#163 = DIRECTION ( 'NONE',  ( -3.491481338843133355E-15, 1.224646799147353207E-16, -1.000000000000000000 ) ) ;
#164 = AXIS2_PLACEMENT_3D ( 'NONE', #82, #241, #165 ) ;
#165 = DIRECTION ( 'NONE',  ( 0.0000000000000000000, -1.000000000000000000, 0.0000000000000000000 ) ) ;
#166 = DIRECTION ( 'NONE',  ( -3.491481338843133355E-15, 1.224646799147353207E-16, -1.000000000000000000 ) ) ;
#167 = DIRECTION ( 'NONE',  ( -3.491481338843133355E-15, 4.327174794786742882E-16, -1.000000000000000000 ) ) ;
#168 = AXIS2_PLACEMENT_3D ( 'NONE', #258, #59, #145 ) ;
#169 = CYLINDRICAL_SURFACE ( 'NONE', #168, 2.000000000000004885 ) ;
#170 = VERTEX_POINT ( 'NONE', #23 ) ;
#171 = EDGE_CURVE ( 'NONE', #86, #86, #6, .T. ) ;
#172 = VERTEX_POINT ( 'NONE', #132 ) ;
#173 = CLOSED_SHELL ( 'NONE', ( #97, #243, #174 ) ) ;
#174 = ADVANCED_FACE ( 'NONE', ( #104 ), #222, .T. ) ;
#175 = DIRECTION ( 'NONE',  ( 0.0000000000000000000, 0.0000000000000000000, 1.000000000000000000 ) ) ;
#176 = PERSON_AND_ORGANIZATION_ROLE ( 'creator' ) ;
#177 = CONICAL_SURFACE ( 'NONE', #230, 3.500000000000011990, 0.5235987755982994818 ) ;
#178 = PERSON_AND_ORGANIZATION ( #122, #47 ) ;
#179 = PRODUCT_RELATED_PRODUCT_CATEGORY ( 'detail', '', ( #45 ) ) ;
#180 = DATE_TIME_ROLE ( 'creation_date' ) ;
#181 = AXIS2_PLACEMENT_3D ( 'NONE', #88, #175, #68 ) ;
#182 = CARTESIAN_POINT ( 'NONE',  ( 2.541590561669657875E-15, -8.914699647580480524E-17, 0.7279404685324160074 ) ) ;
#183 = ORIENTED_EDGE ( 'NONE', *, *, #67, .F. ) ;
#184 = AXIS2_PLACEMENT_3D ( 'NONE', #8, #245, #85 ) ;
#185 = EDGE_LOOP ( 'NONE', ( #75 ) ) ;
#186 = AXIS2_PLACEMENT_3D ( 'NONE', #106, #112, #111 ) ;
#187 = CARTESIAN_POINT ( 'NONE',  ( 1.117274028429801664E-13, -1.384695934331756618E-14, 31.99999999999997158 ) ) ;
#188 = FACE_OUTER_BOUND ( 'NONE', #125, .T. ) ;
#189 = DIRECTION ( 'NONE',  ( 0.0000000000000000000, -1.000000000000000000, 0.0000000000000000000 ) ) ;
#190 = DIRECTION ( 'NONE',  ( 1.510825004591027855E-30, 1.000000000000000000, 4.327174794786742882E-16 ) ) ;
#191 = LOCAL_TIME ( 14, 56, 59.00000000000000000, #154 ) ;
#192 = FACE_BOUND ( 'NONE', #185, .T. ) ;
#193 = DATE_AND_TIME ( #254, #34 ) ;
#194 = PRODUCT_DEFINITION_SHAPE ( 'NONE', 'NONE',  #72 ) ;
#195 = COORDINATED_UNIVERSAL_TIME_OFFSET ( 1, 0, .AHEAD. ) ;
#196 = EDGE_CURVE ( 'NONE', #110, #110, #137, .T. ) ;
#197 = CIRCLE ( 'NONE', #42, 2.999999999999998224 ) ;
#198 = EDGE_LOOP ( 'NONE', ( #253 ) ) ;
#199 = ADVANCED_FACE ( 'NONE', ( #207 ), #21, .F. ) ;
#200 = PERSON_AND_ORGANIZATION_ROLE ( 'classification_officer' ) ;
#201 = ORIENTED_EDGE ( 'NONE', *, *, #11, .F. ) ;
#202 = EDGE_LOOP ( 'NONE', ( #157 ) ) ;
#203 = UNCERTAINTY_MEASURE_WITH_UNIT (LENGTH_MEASURE( 1.000000000000000082E-05 ), #28, 'distance_accuracy_value', 'NONE');
#204 = DIRECTION ( 'NONE',  ( -3.491481338843133355E-15, 4.327174794786742882E-16, -1.000000000000000000 ) ) ;
#205 = FACE_OUTER_BOUND ( 'NONE', #91, .T. ) ;
#206 = AXIS2_PLACEMENT_3D ( 'NONE', #81, #166, #129 ) ;
#207 = FACE_OUTER_BOUND ( 'NONE', #235, .T. ) ;
#208 = CARTESIAN_POINT ( 'NONE',  ( 2.758270257686075477E-13, 1.724723750061123112E-32, 79.00000000000000000 ) ) ;
#209 = ADVANCED_FACE ( 'NONE', ( #46, #151 ), #100, .T. ) ;
#210 = CARTESIAN_POINT ( 'NONE',  ( 9.077851480992146724E-14, -2.000000000000015987, 26.00000000000000000 ) ) ;
#211 = APPROVAL_PERSON_ORGANIZATION ( #159, #134, #32 ) ;
#212 = CARTESIAN_POINT ( 'NONE',  ( 1.147511143792577212E-13, -1.422170367320768127E-14, 32.86602540378443393 ) ) ;
#213 = CC_DESIGN_APPROVAL ( #16, ( #131 ) ) ;
#214 = FACE_OUTER_BOUND ( 'NONE', #56, .T. ) ;
#215 = SECURITY_CLASSIFICATION_LEVEL ( 'unclassified' ) ;
#216 = DATE_AND_TIME ( #138, #92 ) ;
#217 = PERSON_AND_ORGANIZATION ( #122, #47 ) ;
#218 = ADVANCED_FACE ( 'NONE', ( #192, #188 ), #177, .T. ) ;
#219 = MECHANICAL_CONTEXT ( 'NONE', #99, 'mechanical' ) ;
#220 = EDGE_LOOP ( 'NONE', ( #57 ) ) ;
#221 = CARTESIAN_POINT ( 'NONE',  ( 1.064901808347155610E-13, -1.319788312409956579E-14, 30.50000000000000000 ) ) ;
#222 = PLANE ( 'NONE',  #114 ) ;
#223 = DIRECTION ( 'NONE',  ( 4.275831445896958607E-31, 1.000000000000000000, 1.224646799147353207E-16 ) ) ;
#224 = PRODUCT_DEFINITION_FORMATION_WITH_SPECIFIED_SOURCE ( 'ANY', '', #45, .NOT_KNOWN. ) ;
#225 = DIRECTION ( 'NONE',  ( 0.0000000000000000000, 1.000000000000000000, 0.0000000000000000000 ) ) ;
#226 = ADVANCED_FACE ( 'NONE', ( #2, #214 ), #26, .T. ) ;
#227 = DIRECTION ( 'NONE',  ( -3.491481338843133355E-15, 1.224646799147353207E-16, -1.000000000000000000 ) ) ;
#228 = CARTESIAN_POINT ( 'NONE',  ( 2.733829888314172723E-13, 2.999999999999992006, 78.29999999999998295 ) ) ;
#229 = CARTESIAN_POINT ( 'NONE',  ( 0.0000000000000000000, 0.0000000000000000000, 0.0000000000000000000 ) ) ;
#230 = AXIS2_PLACEMENT_3D ( 'NONE', #212, #30, #248 ) ;
#231 = VERTEX_POINT ( 'NONE', #5 ) ;
#232 = DATE_AND_TIME ( #251, #9 ) ;
#233 = CALENDAR_DATE ( 2021, 13, 10 ) ;
#234 = APPROVAL_STATUS ( 'not_yet_approved' ) ;
#235 = EDGE_LOOP ( 'NONE', ( #94 ) ) ;
#236 = PERSON_AND_ORGANIZATION ( #122, #47 ) ;
#237 = APPROVAL_STATUS ( 'not_yet_approved' ) ;
#238 = EDGE_LOOP ( 'NONE', ( #160 ) ) ;
#239 = CC_DESIGN_APPROVAL ( #134, ( #224 ) ) ;
#240 = DIRECTION ( 'NONE',  ( 1.510825004591027855E-30, 1.000000000000000000, 4.327174794786742882E-16 ) ) ;
#241 = DIRECTION ( 'NONE',  ( -3.491481338843133355E-15, 1.224646799147353207E-16, -1.000000000000000000 ) ) ;
#242 = CARTESIAN_POINT ( 'NONE',  ( 3.812385842504467288E-15, -1.337204947137065176E-16, 1.091910702798618571 ) ) ;
#243 = ADVANCED_FACE ( 'NONE', ( #89, #146 ), #247, .T. ) ;
#244 = CC_DESIGN_SECURITY_CLASSIFICATION ( #131, ( #224 ) ) ;
#245 = DIRECTION ( 'NONE',  ( -3.491481338843133355E-15, 1.224646799147353207E-16, -1.000000000000000000 ) ) ;
#246 = AXIS2_PLACEMENT_3D ( 'NONE', #182, #61, #60 ) ;
#247 = CYLINDRICAL_SURFACE ( 'NONE', #87, 2.000000000000004885 ) ;
#248 = DIRECTION ( 'NONE',  ( 0.0000000000000000000, -1.000000000000000000, 0.0000000000000000000 ) ) ;
#249 =( NAMED_UNIT ( * ) PLANE_ANGLE_UNIT ( ) SI_UNIT ( $, .RADIAN. ) );
#250 = AXIS2_PLACEMENT_3D ( 'NONE', #221, #204, #18 ) ;
#251 = CALENDAR_DATE ( 2021, 13, 10 ) ;
#252 = COORDINATED_UNIVERSAL_TIME_OFFSET ( 1, 0, .AHEAD. ) ;
#253 = ORIENTED_EDGE ( 'NONE', *, *, #196, .F. ) ;
#254 = CALENDAR_DATE ( 2021, 13, 10 ) ;
#255 = CIRCLE ( 'NONE', #246, 2.000000000000004885 ) ;
#256 = APPROVAL_PERSON_ORGANIZATION ( #156, #16, #135 ) ;
#257 = PERSON_AND_ORGANIZATION_ROLE ( 'design_supplier' ) ;
#258 = CARTESIAN_POINT ( 'NONE',  ( 0.0000000000000000000, 0.0000000000000000000, 0.0000000000000000000 ) ) ;
#259 = AXIS2_PLACEMENT_3D ( 'NONE', #78, #163, #262 ) ;
#260 = CARTESIAN_POINT ( 'NONE',  ( 9.077851480992146724E-14, 2.249639673992778475E-32, 26.00000000000000000 ) ) ;
#261 = EDGE_CURVE ( 'NONE', #172, #172, #197, .T. ) ;
#262 = DIRECTION ( 'NONE',  ( 0.0000000000000000000, -1.000000000000000000, 0.0000000000000000000 ) ) ;
#263 = DIRECTION ( 'NONE',  ( -3.491481338843133355E-15, 1.224646799147353207E-16, -1.000000000000000000 ) ) ;
ENDSEC;
END-ISO-10303-21;
