ISO-10303-21;
HEADER;
FILE_DESCRIPTION (( 'STEP AP203' ),
    '1' );
FILE_NAME ('960154.step',
    '2021-10-13T12:56:59',
    ( '' ),
    ( '' ),
    'SwSTEP 2.0',
    'SolidWorks 2019',
    '' );
FILE_SCHEMA (( 'CONFIG_CONTROL_DESIGN' ));
ENDSEC;

DATA;
#1 = CIRCLE ( 'NONE', #35, 1.900000000000004352 ) ;
#2 = ORIENTED_EDGE ( 'NONE', *, *, #260, .T. ) ;
#3 = DIRECTION ( 'NONE',  ( 1.510825004591027679E-30, 1.000000000000000000, 4.327174794786742882E-16 ) ) ;
#4 = FACE_OUTER_BOUND ( 'NONE', #244, .T. ) ;
#5 = EDGE_CURVE ( 'NONE', #234, #234, #159, .T. ) ;
#6 = SECURITY_CLASSIFICATION ( '', '', #258 ) ;
#7 = EDGE_LOOP ( 'NONE', ( #73 ) ) ;
#8 = DIRECTION ( 'NONE',  ( 0.0000000000000000000, 1.000000000000000000, 0.0000000000000000000 ) ) ;
#9 = ADVANCED_FACE ( 'NONE', ( #4, #58 ), #183, .T. ) ;
#10 = CONICAL_SURFACE ( 'NONE', #188, 3.500000000000011102, 0.5235987755982999259 ) ;
#11 = FACE_BOUND ( 'NONE', #77, .T. ) ;
#12 = PRODUCT_DEFINITION_SHAPE ( 'NONE', 'NONE',  #89 ) ;
#13 = CARTESIAN_POINT ( 'NONE',  ( 8.623958906942540019E-14, -1.900000000000015010, 24.69999999999999929 ) ) ;
#14 = DIRECTION ( 'NONE',  ( 3.491481338843133355E-15, -4.327174794786742882E-16, 1.000000000000000000 ) ) ;
#15 = PRODUCT_RELATED_PRODUCT_CATEGORY ( 'detail', '', ( #41 ) ) ;
#16 = CARTESIAN_POINT ( 'NONE',  ( 2.758270257686075477E-13, -9.674709713264090904E-15, 79.00000000000000000 ) ) ;
#17 = COORDINATED_UNIVERSAL_TIME_OFFSET ( 1, 0, .AHEAD. ) ;
#18 = APPROVAL_DATE_TIME ( #49, #236 ) ;
#19 = EDGE_LOOP ( 'NONE', ( #240 ) ) ;
#20 = PERSON_AND_ORGANIZATION ( #91, #106 ) ;
#21 = AXIS2_PLACEMENT_3D ( 'NONE', #144, #81, #252 ) ;
#22 = CARTESIAN_POINT ( 'NONE',  ( 8.623958906942540019E-14, 2.249639673992778475E-32, 24.69999999999999929 ) ) ;
#23 = EDGE_CURVE ( 'NONE', #147, #147, #169, .T. ) ;
#24 = DIRECTION ( 'NONE',  ( -4.275831445896958607E-31, -1.000000000000000000, -1.224646799147353207E-16 ) ) ;
#25 = FACE_OUTER_BOUND ( 'NONE', #138, .T. ) ;
#26 = ORIENTED_EDGE ( 'NONE', *, *, #23, .T. ) ;
#27 = FACE_OUTER_BOUND ( 'NONE', #196, .T. ) ;
#28 = CARTESIAN_POINT ( 'NONE',  ( 1.012529588264508673E-13, 2.033974596215557984, 29.00000000000000000 ) ) ;
#29 = DESIGN_CONTEXT ( 'detailed design', #38, 'design' ) ;
#30 = CLOSED_SHELL ( 'NONE', ( #174, #40, #212, #150, #223, #94, #145 ) ) ;
#31 = CARTESIAN_POINT ( 'NONE',  ( 1.070949231419709988E-13, -3.000000000000011990, 30.67320508075686902 ) ) ;
#32 = CARTESIAN_POINT ( 'NONE',  ( 9.950721815702930694E-14, 1.899999999999996358, 28.50000000000000000 ) ) ;
#33 = APPROVAL ( #155, 'UNSPECIFIED' ) ;
#34 = CALENDAR_DATE ( 2021, 13, 10 ) ;
#35 = AXIS2_PLACEMENT_3D ( 'NONE', #45, #247, #104 ) ;
#36 = SHAPE_DEFINITION_REPRESENTATION ( #12, #133 ) ;
#37 = ORIENTED_EDGE ( 'NONE', *, *, #110, .T. ) ;
#38 = APPLICATION_CONTEXT ( 'configuration controlled 3d designs of mechanical parts and assemblies' ) ;
#39 = DIRECTION ( 'NONE',  ( 1.510825004591027679E-30, 1.000000000000000000, 4.327174794786742882E-16 ) ) ;
#40 = ADVANCED_FACE ( 'NONE', ( #164, #82 ), #80, .T. ) ;
#41 = PRODUCT ( '960154', '960154', '', ( #254 ) ) ;
#42 = DIRECTION ( 'NONE',  ( -3.491481338843133355E-15, 1.224646799147353207E-16, -1.000000000000000000 ) ) ;
#43 = DIRECTION ( 'NONE',  ( -3.491481338843133355E-15, 1.224646799147353207E-16, -1.000000000000000000 ) ) ;
#44 = CIRCLE ( 'NONE', #111, 2.033974596215570418 ) ;
#45 = CARTESIAN_POINT ( 'NONE',  ( 8.623958906942540019E-14, -1.068812174312325523E-14, 24.69999999999999929 ) ) ;
#46 = FACE_OUTER_BOUND ( 'NONE', #177, .T. ) ;
#47 = DIRECTION ( 'NONE',  ( 3.491481338843133355E-15, -1.224646799147353207E-16, 1.000000000000000000 ) ) ;
#48 = AXIS2_PLACEMENT_3D ( 'NONE', #224, #47, #256 ) ;
#49 = DATE_AND_TIME ( #238, #149 ) ;
#50 = DATE_AND_TIME ( #96, #60 ) ;
#51 = CALENDAR_DATE ( 2021, 13, 10 ) ;
#52 = AXIS2_PLACEMENT_3D ( 'NONE', #143, #55, #3 ) ;
#53 = APPROVAL_DATE_TIME ( #219, #33 ) ;
#54 = CYLINDRICAL_SURFACE ( 'NONE', #146, 1.900000000000004352 ) ;
#55 = DIRECTION ( 'NONE',  ( -3.491481338843133355E-15, 4.327174794786742882E-16, -1.000000000000000000 ) ) ;
#56 = AXIS2_PLACEMENT_3D ( 'NONE', #189, #215, #187 ) ;
#57 = CARTESIAN_POINT ( 'NONE',  ( 2.414511033586175159E-15, -8.468964665201455265E-17, 0.6915434451057953513 ) ) ;
#58 = FACE_OUTER_BOUND ( 'NONE', #158, .T. ) ;
#59 = CARTESIAN_POINT ( 'NONE',  ( 8.623958906942540019E-14, 2.249639673992778475E-32, 24.69999999999999929 ) ) ;
#60 = LOCAL_TIME ( 14, 56, 59.00000000000000000, #199 ) ;
#61 =( GEOMETRIC_REPRESENTATION_CONTEXT ( 3 ) GLOBAL_UNCERTAINTY_ASSIGNED_CONTEXT ( ( #152 ) ) GLOBAL_UNIT_ASSIGNED_CONTEXT ( ( #108, #168, #232 ) ) REPRESENTATION_CONTEXT ( 'NONE', 'WORKASPACE' ) );
#62 = DIRECTION ( 'NONE',  ( -3.491481338843133355E-15, 1.224646799147353207E-16, -1.000000000000000000 ) ) ;
#63 = CARTESIAN_POINT ( 'NONE',  ( 2.758270257686075477E-13, 1.724723750061123112E-32, 79.00000000000000000 ) ) ;
#64 = EDGE_CURVE ( 'NONE', #107, #107, #44, .T. ) ;
#65 = CARTESIAN_POINT ( 'NONE',  ( 2.758270257686075477E-13, 2.299999999999992273, 79.00000000000000000 ) ) ;
#66 = AXIS2_PLACEMENT_3D ( 'NONE', #57, #102, #253 ) ;
#67 = VERTEX_POINT ( 'NONE', #151 ) ;
#68 = DIRECTION ( 'NONE',  ( 0.0000000000000000000, -1.000000000000000000, 0.0000000000000000000 ) ) ;
#69 = PERSON_AND_ORGANIZATION ( #91, #106 ) ;
#70 = CC_DESIGN_APPROVAL ( #236, ( #6 ) ) ;
#71 = CIRCLE ( 'NONE', #125, 2.300000000000001599 ) ;
#72 = PERSON_AND_ORGANIZATION ( #91, #106 ) ;
#73 = ORIENTED_EDGE ( 'NONE', *, *, #5, .T. ) ;
#74 = CC_DESIGN_PERSON_AND_ORGANIZATION_ASSIGNMENT ( #157, #154, ( #259 ) ) ;
#75 = APPROVAL_ROLE ( '' ) ;
#76 = PERSON_AND_ORGANIZATION ( #91, #106 ) ;
#77 = EDGE_LOOP ( 'NONE', ( #118 ) ) ;
#78 = PLANE ( 'NONE',  #239 ) ;
#79 = CARTESIAN_POINT ( 'NONE',  ( 9.950721815702930694E-14, -1.214306433183764966E-14, 28.50000000000000000 ) ) ;
#80 = CONICAL_SURFACE ( 'NONE', #136, 2.300000000000001599, 0.7853981633974337351 ) ;
#81 = DIRECTION ( 'NONE',  ( 3.491481338843133355E-15, -4.327174794786742882E-16, 1.000000000000000000 ) ) ;
#82 = FACE_BOUND ( 'NONE', #194, .T. ) ;
#83 = AXIS2_PLACEMENT_3D ( 'NONE', #190, #129, #214 ) ;
#84 = FACE_OUTER_BOUND ( 'NONE', #7, .T. ) ;
#85 = VERTEX_POINT ( 'NONE', #65 ) ;
#86 = VERTEX_POINT ( 'NONE', #13 ) ;
#87 = CONICAL_SURFACE ( 'NONE', #48, 2.999999999999992450, 1.221730476396026610 ) ;
#88 = VERTEX_POINT ( 'NONE', #235 ) ;
#89 = PRODUCT_DEFINITION ( 'UNKNOWN', '', #259, #29 ) ;
#90 = PERSON_AND_ORGANIZATION_ROLE ( 'classification_officer' ) ;
#91 = PERSON ( 'UNSPECIFIED', 'UNSPECIFIED', 'UNSPECIFIED', ('UNSPECIFIED'), ('UNSPECIFIED'), ('UNSPECIFIED') ) ;
#92 = PERSON_AND_ORGANIZATION_ROLE ( 'creator' ) ;
#93 = CIRCLE ( 'NONE', #249, 3.000000000000001332 ) ;
#94 = ADVANCED_FACE ( 'NONE', ( #25, #162 ), #217, .F. ) ;
#95 = EDGE_LOOP ( 'NONE', ( #26 ) ) ;
#96 = CALENDAR_DATE ( 2021, 13, 10 ) ;
#97 = ORIENTED_EDGE ( 'NONE', *, *, #251, .F. ) ;
#98 = APPROVAL_DATE_TIME ( #241, #184 ) ;
#99 = AXIS2_PLACEMENT_3D ( 'NONE', #228, #123, #185 ) ;
#100 = DIRECTION ( 'NONE',  ( -4.275831445896958607E-31, -1.000000000000000000, -1.224646799147353207E-16 ) ) ;
#101 = DIRECTION ( 'NONE',  ( 0.0000000000000000000, 1.000000000000000000, 0.0000000000000000000 ) ) ;
#102 = DIRECTION ( 'NONE',  ( -3.491481338843133355E-15, 1.224646799147353207E-16, -1.000000000000000000 ) ) ;
#103 = CC_DESIGN_PERSON_AND_ORGANIZATION_ASSIGNMENT ( #137, #90, ( #6 ) ) ;
#104 = DIRECTION ( 'NONE',  ( 0.0000000000000000000, -1.000000000000000000, 0.0000000000000000000 ) ) ;
#105 = FACE_OUTER_BOUND ( 'NONE', #161, .T. ) ;
#106 = ORGANIZATION ( 'UNSPECIFIED', 'UNSPECIFIED', '' ) ;
#107 = VERTEX_POINT ( 'NONE', #28 ) ;
#108 =( LENGTH_UNIT ( ) NAMED_UNIT ( * ) SI_UNIT ( .MILLI., .METRE. ) );
#109 = APPLICATION_CONTEXT ( 'configuration controlled 3d designs of mechanical parts and assemblies' ) ;
#110 = EDGE_CURVE ( 'NONE', #67, #67, #93, .T. ) ;
#111 = AXIS2_PLACEMENT_3D ( 'NONE', #166, #181, #8 ) ;
#112 = DIRECTION ( 'NONE',  ( -3.491481338843133355E-15, 1.224646799147353207E-16, -1.000000000000000000 ) ) ;
#113 = MANIFOLD_SOLID_BREP ( 'Corps-Déplacer/Copier1[2]', #257 ) ;
#114 = COORDINATED_UNIVERSAL_TIME_OFFSET ( 1, 0, .AHEAD. ) ;
#115 = EDGE_CURVE ( 'NONE', #86, #86, #1, .T. ) ;
#116 = DATE_AND_TIME ( #34, #142 ) ;
#117 = CIRCLE ( 'NONE', #66, 1.900000000000004352 ) ;
#118 = ORIENTED_EDGE ( 'NONE', *, *, #64, .F. ) ;
#119 = ORIENTED_EDGE ( 'NONE', *, *, #251, .T. ) ;
#120 = FACE_OUTER_BOUND ( 'NONE', #95, .T. ) ;
#121 = ORIENTED_EDGE ( 'NONE', *, *, #260, .F. ) ;
#122 = EDGE_CURVE ( 'NONE', #88, #88, #117, .T. ) ;
#123 = DIRECTION ( 'NONE',  ( -3.491481338843133355E-15, 1.224646799147353207E-16, -1.000000000000000000 ) ) ;
#124 = DIRECTION ( 'NONE',  ( -3.491481338843133355E-15, 4.327174794786742882E-16, -1.000000000000000000 ) ) ;
#125 = AXIS2_PLACEMENT_3D ( 'NONE', #16, #62, #171 ) ;
#126 = EDGE_LOOP ( 'NONE', ( #179 ) ) ;
#127 = CARTESIAN_POINT ( 'NONE',  ( 1.101186346782485157E-13, -1.364757631996768970E-14, 31.53923048454132427 ) ) ;
#128 = AXIS2_PLACEMENT_3D ( 'NONE', #63, #112, #170 ) ;
#129 = DIRECTION ( 'NONE',  ( -3.491481338843133355E-15, 1.224646799147353207E-16, -1.000000000000000000 ) ) ;
#130 = ADVANCED_FACE ( 'NONE', ( #210 ), #165, .T. ) ;
#131 = CYLINDRICAL_SURFACE ( 'NONE', #83, 2.999999999999998224 ) ;
#132 = CARTESIAN_POINT ( 'NONE',  ( 0.0000000000000000000, 0.0000000000000000000, 0.0000000000000000000 ) ) ;
#133 = ADVANCED_BREP_SHAPE_REPRESENTATION ( '960154', ( #198, #113, #230 ), #61 ) ;
#134 = PERSON_AND_ORGANIZATION ( #91, #106 ) ;
#135 = EDGE_LOOP ( 'NONE', ( #218 ) ) ;
#136 = AXIS2_PLACEMENT_3D ( 'NONE', #140, #42, #205 ) ;
#137 = PERSON_AND_ORGANIZATION ( #91, #106 ) ;
#138 = EDGE_LOOP ( 'NONE', ( #97 ) ) ;
#139 = COORDINATED_UNIVERSAL_TIME_OFFSET ( 1, 0, .AHEAD. ) ;
#140 = CARTESIAN_POINT ( 'NONE',  ( 2.758270257686075477E-13, -9.674709713264090904E-15, 79.00000000000000000 ) ) ;
#141 = APPROVAL_PERSON_ORGANIZATION ( #76, #184, #160 ) ;
#142 = LOCAL_TIME ( 14, 56, 59.00000000000000000, #17 ) ;
#143 = CARTESIAN_POINT ( 'NONE',  ( 0.0000000000000000000, 0.0000000000000000000, 0.0000000000000000000 ) ) ;
#144 = CARTESIAN_POINT ( 'NONE',  ( 1.070949231419709988E-13, -1.327283199007757776E-14, 30.67320508075686902 ) ) ;
#145 = ADVANCED_FACE ( 'NONE', ( #120 ), #78, .F. ) ;
#146 = AXIS2_PLACEMENT_3D ( 'NONE', #227, #124, #206 ) ;
#147 = VERTEX_POINT ( 'NONE', #148 ) ;
#148 = CARTESIAN_POINT ( 'NONE',  ( 8.623958906942540019E-14, -1.900000000000015010, 24.69999999999999929 ) ) ;
#149 = LOCAL_TIME ( 14, 56, 59.00000000000000000, #193 ) ;
#150 = ADVANCED_FACE ( 'NONE', ( #27, #105 ), #54, .T. ) ;
#151 = CARTESIAN_POINT ( 'NONE',  ( 2.733829888314172723E-13, 2.999999999999992006, 78.29999999999998295 ) ) ;
#152 = UNCERTAINTY_MEASURE_WITH_UNIT (LENGTH_MEASURE( 1.000000000000000082E-05 ), #108, 'distance_accuracy_value', 'NONE');
#153 = PERSON_AND_ORGANIZATION_ROLE ( 'design_owner' ) ;
#154 = PERSON_AND_ORGANIZATION_ROLE ( 'creator' ) ;
#155 = APPROVAL_STATUS ( 'not_yet_approved' ) ;
#156 = EDGE_LOOP ( 'NONE', ( #37 ) ) ;
#157 = PERSON_AND_ORGANIZATION ( #91, #106 ) ;
#158 = EDGE_LOOP ( 'NONE', ( #248 ) ) ;
#159 = CIRCLE ( 'NONE', #21, 2.999999999999998224 ) ;
#160 = APPROVAL_ROLE ( '' ) ;
#161 = EDGE_LOOP ( 'NONE', ( #222 ) ) ;
#162 = FACE_OUTER_BOUND ( 'NONE', #178, .T. ) ;
#163 = CC_DESIGN_PERSON_AND_ORGANIZATION_ASSIGNMENT ( #134, #153, ( #41 ) ) ;
#164 = FACE_OUTER_BOUND ( 'NONE', #19, .T. ) ;
#165 = PLANE ( 'NONE',  #191 ) ;
#166 = CARTESIAN_POINT ( 'NONE',  ( 1.012529588264508673E-13, -1.254880690488155436E-14, 29.00000000000000000 ) ) ;
#167 = CC_DESIGN_DATE_AND_TIME_ASSIGNMENT ( #50, #246, ( #6 ) ) ;
#168 =( NAMED_UNIT ( * ) PLANE_ANGLE_UNIT ( ) SI_UNIT ( $, .RADIAN. ) );
#169 = CIRCLE ( 'NONE', #99, 1.900000000000004352 ) ;
#170 = DIRECTION ( 'NONE',  ( 4.275831445896958607E-31, 1.000000000000000000, 1.224646799147353207E-16 ) ) ;
#171 = DIRECTION ( 'NONE',  ( 0.0000000000000000000, 1.000000000000000000, 0.0000000000000000000 ) ) ;
#172 = ADVANCED_FACE ( 'NONE', ( #208 ), #87, .T. ) ;
#173 = FACE_OUTER_BOUND ( 'NONE', #156, .T. ) ;
#174 = ADVANCED_FACE ( 'NONE', ( #84, #173 ), #131, .T. ) ;
#175 = PERSON_AND_ORGANIZATION ( #91, #106 ) ;
#176 = LOCAL_TIME ( 14, 56, 59.00000000000000000, #114 ) ;
#177 = EDGE_LOOP ( 'NONE', ( #121 ) ) ;
#178 = EDGE_LOOP ( 'NONE', ( #180 ) ) ;
#179 = ORIENTED_EDGE ( 'NONE', *, *, #122, .T. ) ;
#180 = ORIENTED_EDGE ( 'NONE', *, *, #64, .T. ) ;
#181 = DIRECTION ( 'NONE',  ( -3.491481338843133355E-15, 4.327174794786742882E-16, -1.000000000000000000 ) ) ;
#182 = DIRECTION ( 'NONE',  ( 3.491481338843133355E-15, -1.224646799147353207E-16, 1.000000000000000000 ) ) ;
#183 = CYLINDRICAL_SURFACE ( 'NONE', #52, 1.900000000000004352 ) ;
#184 = APPROVAL ( #262, 'UNSPECIFIED' ) ;
#185 = DIRECTION ( 'NONE',  ( 0.0000000000000000000, -1.000000000000000000, 0.0000000000000000000 ) ) ;
#186 = CC_DESIGN_APPROVAL ( #184, ( #259 ) ) ;
#187 = DIRECTION ( 'NONE',  ( 0.0000000000000000000, 1.000000000000000000, 0.0000000000000000000 ) ) ;
#188 = AXIS2_PLACEMENT_3D ( 'NONE', #127, #14, #68 ) ;
#189 = CARTESIAN_POINT ( 'NONE',  ( 9.950721815702930694E-14, -1.233244816514221721E-14, 28.50000000000000000 ) ) ;
#190 = CARTESIAN_POINT ( 'NONE',  ( 0.0000000000000000000, 0.0000000000000000000, 0.0000000000000000000 ) ) ;
#191 = AXIS2_PLACEMENT_3D ( 'NONE', #22, #204, #24 ) ;
#192 = VERTEX_POINT ( 'NONE', #32 ) ;
#193 = COORDINATED_UNIVERSAL_TIME_OFFSET ( 1, 0, .AHEAD. ) ;
#194 = EDGE_LOOP ( 'NONE', ( #2 ) ) ;
#195 = APPROVAL_STATUS ( 'not_yet_approved' ) ;
#196 = EDGE_LOOP ( 'NONE', ( #119 ) ) ;
#197 = APPROVAL_PERSON_ORGANIZATION ( #72, #33, #75 ) ;
#198 = MANIFOLD_SOLID_BREP ( 'Corps-Déplacer/Copier1[1]', #30 ) ;
#199 = COORDINATED_UNIVERSAL_TIME_OFFSET ( 1, 0, .AHEAD. ) ;
#200 = CC_DESIGN_PERSON_AND_ORGANIZATION_ASSIGNMENT ( #175, #243, ( #259 ) ) ;
#201 = ORIENTED_EDGE ( 'NONE', *, *, #115, .T. ) ;
#202 = APPLICATION_PROTOCOL_DEFINITION ( 'international standard', 'config_control_design', 1994, #38 ) ;
#203 = ORIENTED_EDGE ( 'NONE', *, *, #115, .F. ) ;
#204 = DIRECTION ( 'NONE',  ( 3.491481338843133355E-15, -1.224646799147353207E-16, 1.000000000000000000 ) ) ;
#205 = DIRECTION ( 'NONE',  ( 0.0000000000000000000, 1.000000000000000000, 0.0000000000000000000 ) ) ;
#206 = DIRECTION ( 'NONE',  ( 1.510825004591027679E-30, 1.000000000000000000, 4.327174794786742882E-16 ) ) ;
#207 = AXIS2_PLACEMENT_3D ( 'NONE', #79, #250, #39 ) ;
#208 = FACE_OUTER_BOUND ( 'NONE', #126, .T. ) ;
#209 = CC_DESIGN_DATE_AND_TIME_ASSIGNMENT ( #116, #263, ( #89 ) ) ;
#210 = FACE_OUTER_BOUND ( 'NONE', #231, .T. ) ;
#211 = DIRECTION ( 'NONE',  ( 1.000000000000000000, 0.0000000000000000000, 0.0000000000000000000 ) ) ;
#212 = ADVANCED_FACE ( 'NONE', ( #46 ), #213, .F. ) ;
#213 = PLANE ( 'NONE',  #128 ) ;
#214 = DIRECTION ( 'NONE',  ( 4.275831445896958607E-31, 1.000000000000000000, 1.224646799147353454E-16 ) ) ;
#215 = DIRECTION ( 'NONE',  ( -3.491481338843133355E-15, 4.327174794786742882E-16, -1.000000000000000000 ) ) ;
#216 = DIRECTION ( 'NONE',  ( 0.0000000000000000000, 0.0000000000000000000, 1.000000000000000000 ) ) ;
#217 = TOROIDAL_SURFACE ( 'NONE', #207, 2.900000000000008349, 1.000000000000000000 ) ;
#218 = ORIENTED_EDGE ( 'NONE', *, *, #5, .F. ) ;
#219 = DATE_AND_TIME ( #221, #261 ) ;
#220 = APPROVAL_ROLE ( '' ) ;
#221 = CALENDAR_DATE ( 2021, 13, 10 ) ;
#222 = ORIENTED_EDGE ( 'NONE', *, *, #23, .F. ) ;
#223 = ADVANCED_FACE ( 'NONE', ( #11, #255 ), #10, .T. ) ;
#224 = CARTESIAN_POINT ( 'NONE',  ( 3.812385842504467288E-15, -1.337204947137065176E-16, 1.091910702798618571 ) ) ;
#225 = APPROVAL_PERSON_ORGANIZATION ( #69, #236, #220 ) ;
#226 = CARTESIAN_POINT ( 'NONE',  ( 2.733829888314172723E-13, -9.588984437323771882E-15, 78.29999999999998295 ) ) ;
#227 = CARTESIAN_POINT ( 'NONE',  ( 0.0000000000000000000, 0.0000000000000000000, 0.0000000000000000000 ) ) ;
#228 = CARTESIAN_POINT ( 'NONE',  ( 8.623958906942540019E-14, -1.068812174312325523E-14, 24.69999999999999929 ) ) ;
#229 = CC_DESIGN_SECURITY_CLASSIFICATION ( #6, ( #259 ) ) ;
#230 = AXIS2_PLACEMENT_3D ( 'NONE', #132, #216, #211 ) ;
#231 = EDGE_LOOP ( 'NONE', ( #203 ) ) ;
#232 =( NAMED_UNIT ( * ) SI_UNIT ( $, .STERADIAN. ) SOLID_ANGLE_UNIT ( ) );
#233 = CC_DESIGN_APPROVAL ( #33, ( #89 ) ) ;
#234 = VERTEX_POINT ( 'NONE', #31 ) ;
#235 = CARTESIAN_POINT ( 'NONE',  ( 2.414511033586174370E-15, -1.900000000000004352, 0.6915434451057951293 ) ) ;
#236 = APPROVAL ( #195, 'UNSPECIFIED' ) ;
#237 = APPLICATION_PROTOCOL_DEFINITION ( 'international standard', 'config_control_design', 1994, #109 ) ;
#238 = CALENDAR_DATE ( 2021, 13, 10 ) ;
#239 = AXIS2_PLACEMENT_3D ( 'NONE', #59, #182, #100 ) ;
#240 = ORIENTED_EDGE ( 'NONE', *, *, #110, .F. ) ;
#241 = DATE_AND_TIME ( #51, #176 ) ;
#242 = CC_DESIGN_PERSON_AND_ORGANIZATION_ASSIGNMENT ( #20, #92, ( #89 ) ) ;
#243 = PERSON_AND_ORGANIZATION_ROLE ( 'design_supplier' ) ;
#244 = EDGE_LOOP ( 'NONE', ( #201 ) ) ;
#245 = CIRCLE ( 'NONE', #56, 1.900000000000008571 ) ;
#246 = DATE_TIME_ROLE ( 'classification_date' ) ;
#247 = DIRECTION ( 'NONE',  ( -3.491481338843133355E-15, 1.224646799147353207E-16, -1.000000000000000000 ) ) ;
#248 = ORIENTED_EDGE ( 'NONE', *, *, #122, .F. ) ;
#249 = AXIS2_PLACEMENT_3D ( 'NONE', #226, #43, #101 ) ;
#250 = DIRECTION ( 'NONE',  ( -3.491481338843133355E-15, 4.327174794786742882E-16, -1.000000000000000000 ) ) ;
#251 = EDGE_CURVE ( 'NONE', #192, #192, #245, .T. ) ;
#252 = DIRECTION ( 'NONE',  ( 0.0000000000000000000, -1.000000000000000000, 0.0000000000000000000 ) ) ;
#253 = DIRECTION ( 'NONE',  ( -4.054589356604697932E-31, -1.000000000000000000, -1.141265444721581046E-16 ) ) ;
#254 = MECHANICAL_CONTEXT ( 'NONE', #109, 'mechanical' ) ;
#255 = FACE_OUTER_BOUND ( 'NONE', #135, .T. ) ;
#256 = DIRECTION ( 'NONE',  ( -5.135813185032641787E-31, -1.000000000000000000, -1.445602896647342861E-16 ) ) ;
#257 = CLOSED_SHELL ( 'NONE', ( #172, #9, #130 ) ) ;
#258 = SECURITY_CLASSIFICATION_LEVEL ( 'unclassified' ) ;
#259 = PRODUCT_DEFINITION_FORMATION_WITH_SPECIFIED_SOURCE ( 'ANY', '', #41, .NOT_KNOWN. ) ;
#260 = EDGE_CURVE ( 'NONE', #85, #85, #71, .T. ) ;
#261 = LOCAL_TIME ( 14, 56, 59.00000000000000000, #139 ) ;
#262 = APPROVAL_STATUS ( 'not_yet_approved' ) ;
#263 = DATE_TIME_ROLE ( 'creation_date' ) ;
ENDSEC;
END-ISO-10303-21;
