ISO-10303-21;
HEADER;
FILE_DESCRIPTION (( 'STEP AP203' ),
    '1' );
FILE_NAME ('960153.step',
    '2021-10-13T12:56:58',
    ( '' ),
    ( '' ),
    'SwSTEP 2.0',
    'SolidWorks 2019',
    '' );
FILE_SCHEMA (( 'CONFIG_CONTROL_DESIGN' ));
ENDSEC;

DATA;
#1 = ORIENTED_EDGE ( 'NONE', *, *, #213, .F. ) ;
#2 = AXIS2_PLACEMENT_3D ( 'NONE', #225, #261, #155 ) ;
#3 = PERSON_AND_ORGANIZATION_ROLE ( 'design_supplier' ) ;
#4 = PRODUCT_DEFINITION_SHAPE ( 'NONE', 'NONE',  #128 ) ;
#5 = CC_DESIGN_APPROVAL ( #143, ( #128 ) ) ;
#6 = ORIENTED_EDGE ( 'NONE', *, *, #166, .T. ) ;
#7 = ORIENTED_EDGE ( 'NONE', *, *, #91, .T. ) ;
#8 = ORIENTED_EDGE ( 'NONE', *, *, #195, .T. ) ;
#9 = FACE_BOUND ( 'NONE', #32, .T. ) ;
#10 = CC_DESIGN_DATE_AND_TIME_ASSIGNMENT ( #124, #232, ( #80 ) ) ;
#11 = CONICAL_SURFACE ( 'NONE', #172, 3.500000000000011102, 0.5235987755983007030 ) ;
#12 = DIRECTION ( 'NONE',  ( -3.491481338843133355E-15, 4.327174794786742882E-16, -1.000000000000000000 ) ) ;
#13 = VERTEX_POINT ( 'NONE', #242 ) ;
#14 = DIRECTION ( 'NONE',  ( 1.510825004591027679E-30, 1.000000000000000000, 4.327174794786742882E-16 ) ) ;
#15 = VERTEX_POINT ( 'NONE', #180 ) ;
#16 = PRODUCT ( '960153', '960153', '', ( #230 ) ) ;
#17 = CARTESIAN_POINT ( 'NONE',  ( 0.0000000000000000000, 0.0000000000000000000, 0.0000000000000000000 ) ) ;
#18 = ORIENTED_EDGE ( 'NONE', *, *, #195, .F. ) ;
#19 = APPROVAL_STATUS ( 'not_yet_approved' ) ;
#20 = PERSON_AND_ORGANIZATION ( #201, #205 ) ;
#21 = CLOSED_SHELL ( 'NONE', ( #43, #54, #100, #133, #81, #219, #149 ) ) ;
#22 = LOCAL_TIME ( 14, 56, 58.00000000000000000, #211 ) ;
#23 = PERSON_AND_ORGANIZATION_ROLE ( 'creator' ) ;
#24 = APPLICATION_PROTOCOL_DEFINITION ( 'international standard', 'config_control_design', 1994, #30 ) ;
#25 = MANIFOLD_SOLID_BREP ( 'Corps-Déplacer/Copier1[1]', #21 ) ;
#26 = DIRECTION ( 'NONE',  ( 0.0000000000000000000, -1.000000000000000000, 0.0000000000000000000 ) ) ;
#27 = CIRCLE ( 'NONE', #89, 3.000000000000001332 ) ;
#28 = CARTESIAN_POINT ( 'NONE',  ( 2.758270257686075477E-13, 1.724723750061123112E-32, 79.00000000000000000 ) ) ;
#29 = EDGE_LOOP ( 'NONE', ( #169 ) ) ;
#30 = APPLICATION_CONTEXT ( 'configuration controlled 3d designs of mechanical parts and assemblies' ) ;
#31 = EDGE_LOOP ( 'NONE', ( #164 ) ) ;
#32 = EDGE_LOOP ( 'NONE', ( #8 ) ) ;
#33 = DIRECTION ( 'NONE',  ( 0.0000000000000000000, 1.000000000000000000, 0.0000000000000000000 ) ) ;
#34 = VERTEX_POINT ( 'NONE', #52 ) ;
#35 = AXIS2_PLACEMENT_3D ( 'NONE', #28, #252, #237 ) ;
#36 = DIRECTION ( 'NONE',  ( -3.491481338843133355E-15, 1.224646799147353207E-16, -1.000000000000000000 ) ) ;
#37 = CARTESIAN_POINT ( 'NONE',  ( 8.519214466777244125E-14, -1.875000000000014877, 24.39999999999999858 ) ) ;
#38 = APPROVAL_STATUS ( 'not_yet_approved' ) ;
#39 = PERSON_AND_ORGANIZATION ( #201, #205 ) ;
#40 = EDGE_LOOP ( 'NONE', ( #216 ) ) ;
#41 = PERSON_AND_ORGANIZATION ( #201, #205 ) ;
#42 = APPROVAL_ROLE ( '' ) ;
#43 = ADVANCED_FACE ( 'NONE', ( #87, #168 ), #63, .T. ) ;
#44 = DIRECTION ( 'NONE',  ( 0.0000000000000000000, 1.000000000000000000, 0.0000000000000000000 ) ) ;
#45 = AXIS2_PLACEMENT_3D ( 'NONE', #150, #215, #106 ) ;
#46 = LOCAL_TIME ( 14, 56, 58.00000000000000000, #138 ) ;
#47 = EDGE_CURVE ( 'NONE', #34, #34, #147, .T. ) ;
#48 = DIRECTION ( 'NONE',  ( -3.491481338843133355E-15, 4.327174794786742882E-16, -1.000000000000000000 ) ) ;
#49 = CARTESIAN_POINT ( 'NONE',  ( 8.519214466777244125E-14, -1.055830649927965169E-14, 24.39999999999999858 ) ) ;
#50 = DIRECTION ( 'NONE',  ( -3.491481338843133355E-15, 1.224646799147353207E-16, -1.000000000000000000 ) ) ;
#51 = LOCAL_TIME ( 14, 56, 58.00000000000000000, #99 ) ;
#52 = CARTESIAN_POINT ( 'NONE',  ( 2.382741151565303494E-15, -1.875000000000004219, 0.6824441892491398542 ) ) ;
#53 = DIRECTION ( 'NONE',  ( 0.0000000000000000000, -1.000000000000000000, 0.0000000000000000000 ) ) ;
#54 = ADVANCED_FACE ( 'NONE', ( #193, #9 ), #78, .T. ) ;
#55 =( NAMED_UNIT ( * ) PLANE_ANGLE_UNIT ( ) SI_UNIT ( $, .RADIAN. ) );
#56 = FACE_OUTER_BOUND ( 'NONE', #251, .T. ) ;
#57 = PERSON_AND_ORGANIZATION_ROLE ( 'design_owner' ) ;
#58 = ADVANCED_FACE ( 'NONE', ( #69 ), #256, .T. ) ;
#59 = CC_DESIGN_APPROVAL ( #170, ( #126 ) ) ;
#60 = SECURITY_CLASSIFICATION_LEVEL ( 'unclassified' ) ;
#61 = EDGE_LOOP ( 'NONE', ( #145 ) ) ;
#62 = EDGE_LOOP ( 'NONE', ( #130 ) ) ;
#63 = CYLINDRICAL_SURFACE ( 'NONE', #167, 2.999999999999998224 ) ;
#64 = CC_DESIGN_DATE_AND_TIME_ASSIGNMENT ( #101, #163, ( #128 ) ) ;
#65 = DIRECTION ( 'NONE',  ( -3.491481338843133355E-15, 1.224646799147353207E-16, -1.000000000000000000 ) ) ;
#66 = CIRCLE ( 'NONE', #263, 1.875000000000008438 ) ;
#67 = CARTESIAN_POINT ( 'NONE',  ( 1.088732277195250934E-13, -1.349322654467071998E-14, 31.18253175473053673 ) ) ;
#68 = FACE_OUTER_BOUND ( 'NONE', #188, .T. ) ;
#69 = FACE_OUTER_BOUND ( 'NONE', #86, .T. ) ;
#70 = CARTESIAN_POINT ( 'NONE',  ( 9.811062562149205359E-14, -1.214306433183764966E-14, 28.10000000000000142 ) ) ;
#71 = CARTESIAN_POINT ( 'NONE',  ( 9.811062562149205359E-14, -1.215936117335074687E-14, 28.10000000000000142 ) ) ;
#72 = FACE_OUTER_BOUND ( 'NONE', #248, .T. ) ;
#73 = APPROVAL_STATUS ( 'not_yet_approved' ) ;
#74 = APPROVAL_DATE_TIME ( #208, #143 ) ;
#75 = EDGE_LOOP ( 'NONE', ( #96 ) ) ;
#76 = EDGE_CURVE ( 'NONE', #241, #241, #27, .T. ) ;
#77 = CALENDAR_DATE ( 2021, 13, 10 ) ;
#78 = CONICAL_SURFACE ( 'NONE', #250, 2.300000000000001599, 0.7853981633974337351 ) ;
#79 = ORIENTED_EDGE ( 'NONE', *, *, #76, .F. ) ;
#80 = SECURITY_CLASSIFICATION ( '', '', #60 ) ;
#81 = ADVANCED_FACE ( 'NONE', ( #173, #68 ), #11, .T. ) ;
#82 = DIRECTION ( 'NONE',  ( 3.491481338843133355E-15, -1.224646799147353207E-16, 1.000000000000000000 ) ) ;
#83 = ORIENTED_EDGE ( 'NONE', *, *, #76, .T. ) ;
#84 = CARTESIAN_POINT ( 'NONE',  ( 2.758270257686075477E-13, -9.674709713264090904E-15, 79.00000000000000000 ) ) ;
#85 = CLOSED_SHELL ( 'NONE', ( #255, #231, #58 ) ) ;
#86 = EDGE_LOOP ( 'NONE', ( #1 ) ) ;
#87 = FACE_OUTER_BOUND ( 'NONE', #210, .T. ) ;
#88 = DIRECTION ( 'NONE',  ( 3.491481338843133355E-15, -4.327174794786742882E-16, 1.000000000000000000 ) ) ;
#89 = AXIS2_PLACEMENT_3D ( 'NONE', #125, #151, #254 ) ;
#90 = AXIS2_PLACEMENT_3D ( 'NONE', #17, #186, #122 ) ;
#91 = EDGE_CURVE ( 'NONE', #112, #112, #198, .T. ) ;
#92 = FACE_OUTER_BOUND ( 'NONE', #31, .T. ) ;
#93 = DESIGN_CONTEXT ( 'detailed design', #30, 'design' ) ;
#94 = DIRECTION ( 'NONE',  ( -5.135813185032641787E-31, -1.000000000000000000, -1.445602896647342861E-16 ) ) ;
#95 = CALENDAR_DATE ( 2021, 13, 10 ) ;
#96 = ORIENTED_EDGE ( 'NONE', *, *, #121, .T. ) ;
#97 = COORDINATED_UNIVERSAL_TIME_OFFSET ( 1, 0, .AHEAD. ) ;
#98 = CIRCLE ( 'NONE', #153, 2.300000000000001599 ) ;
#99 = COORDINATED_UNIVERSAL_TIME_OFFSET ( 1, 0, .AHEAD. ) ;
#100 = ADVANCED_FACE ( 'NONE', ( #107 ), #146, .F. ) ;
#101 = DATE_AND_TIME ( #77, #51 ) ;
#102 = EDGE_LOOP ( 'NONE', ( #83 ) ) ;
#103 = CALENDAR_DATE ( 2021, 13, 10 ) ;
#104 = APPROVAL ( #38, 'UNSPECIFIED' ) ;
#105 = AXIS2_PLACEMENT_3D ( 'NONE', #132, #135, #156 ) ;
#106 = DIRECTION ( 'NONE',  ( 0.0000000000000000000, 1.000000000000000000, 0.0000000000000000000 ) ) ;
#107 = FACE_OUTER_BOUND ( 'NONE', #207, .T. ) ;
#108 = CARTESIAN_POINT ( 'NONE',  ( 2.382741151565304283E-15, -8.357530919606700800E-17, 0.6824441892491400763 ) ) ;
#109 = CC_DESIGN_PERSON_AND_ORGANIZATION_ASSIGNMENT ( #165, #245, ( #80 ) ) ;
#110 = FACE_OUTER_BOUND ( 'NONE', #62, .T. ) ;
#111 = CC_DESIGN_PERSON_AND_ORGANIZATION_ASSIGNMENT ( #39, #23, ( #128 ) ) ;
#112 = VERTEX_POINT ( 'NONE', #196 ) ;
#113 = AXIS2_PLACEMENT_3D ( 'NONE', #108, #238, #174 ) ;
#114 = CARTESIAN_POINT ( 'NONE',  ( 9.811062562149205359E-14, 1.874999999999996225, 28.10000000000000142 ) ) ;
#115 = VERTEX_POINT ( 'NONE', #37 ) ;
#116 = VERTEX_POINT ( 'NONE', #203 ) ;
#117 = TOROIDAL_SURFACE ( 'NONE', #178, 2.875000000000008882, 0.9999999999999991118 ) ;
#118 = APPROVAL_DATE_TIME ( #140, #104 ) ;
#119 = ORIENTED_EDGE ( 'NONE', *, *, #121, .F. ) ;
#120 = PERSON_AND_ORGANIZATION ( #201, #205 ) ;
#121 = EDGE_CURVE ( 'NONE', #115, #115, #204, .T. ) ;
#122 = DIRECTION ( 'NONE',  ( 1.000000000000000000, 0.0000000000000000000, 0.0000000000000000000 ) ) ;
#123 = AXIS2_PLACEMENT_3D ( 'NONE', #49, #65, #192 ) ;
#124 = DATE_AND_TIME ( #249, #46 ) ;
#125 = CARTESIAN_POINT ( 'NONE',  ( 2.733829888314172723E-13, -9.588984437323771882E-15, 78.29999999999998295 ) ) ;
#126 = PRODUCT_DEFINITION_FORMATION_WITH_SPECIFIED_SOURCE ( 'ANY', '', #16, .NOT_KNOWN. ) ;
#127 = DIRECTION ( 'NONE',  ( 1.510825004591027855E-30, 1.000000000000000000, 4.327174794786743375E-16 ) ) ;
#128 = PRODUCT_DEFINITION ( 'UNKNOWN', '', #126, #93 ) ;
#129 = FACE_OUTER_BOUND ( 'NONE', #29, .T. ) ;
#130 = ORIENTED_EDGE ( 'NONE', *, *, #47, .F. ) ;
#131 = CIRCLE ( 'NONE', #2, 1.875000000000004219 ) ;
#132 = CARTESIAN_POINT ( 'NONE',  ( 0.0000000000000000000, 0.0000000000000000000, 0.0000000000000000000 ) ) ;
#133 = ADVANCED_FACE ( 'NONE', ( #129, #148 ), #236, .T. ) ;
#134 = PLANE ( 'NONE',  #185 ) ;
#135 = DIRECTION ( 'NONE',  ( -3.491481338843133355E-15, 4.327174794786742882E-16, -1.000000000000000000 ) ) ;
#136 = DIRECTION ( 'NONE',  ( 0.0000000000000000000, 1.000000000000000000, 0.0000000000000000000 ) ) ;
#137 = CYLINDRICAL_SURFACE ( 'NONE', #105, 1.875000000000004219 ) ;
#138 = COORDINATED_UNIVERSAL_TIME_OFFSET ( 1, 0, .AHEAD. ) ;
#139 = APPROVAL_PERSON_ORGANIZATION ( #187, #143, #42 ) ;
#140 = DATE_AND_TIME ( #95, #22 ) ;
#141 = CALENDAR_DATE ( 2021, 13, 10 ) ;
#142 = PERSON_AND_ORGANIZATION ( #201, #205 ) ;
#143 = APPROVAL ( #19, 'UNSPECIFIED' ) ;
#144 = APPROVAL_PERSON_ORGANIZATION ( #41, #104, #246 ) ;
#145 = ORIENTED_EDGE ( 'NONE', *, *, #182, .F. ) ;
#146 = PLANE ( 'NONE',  #35 ) ;
#147 = CIRCLE ( 'NONE', #113, 1.875000000000004219 ) ;
#148 = FACE_OUTER_BOUND ( 'NONE', #229, .T. ) ;
#149 = ADVANCED_FACE ( 'NONE', ( #181 ), #134, .F. ) ;
#150 = CARTESIAN_POINT ( 'NONE',  ( 9.985636629091361396E-14, -1.237571991309008559E-14, 28.60000000000000142 ) ) ;
#151 = DIRECTION ( 'NONE',  ( -3.491481338843133355E-15, 1.224646799147353207E-16, -1.000000000000000000 ) ) ;
#152 = CARTESIAN_POINT ( 'NONE',  ( 0.0000000000000000000, 0.0000000000000000000, 0.0000000000000000000 ) ) ;
#153 = AXIS2_PLACEMENT_3D ( 'NONE', #244, #36, #33 ) ;
#154 = LOCAL_TIME ( 14, 56, 58.00000000000000000, #159 ) ;
#155 = DIRECTION ( 'NONE',  ( 0.0000000000000000000, -1.000000000000000000, 0.0000000000000000000 ) ) ;
#156 = DIRECTION ( 'NONE',  ( 1.510825004591027855E-30, 1.000000000000000000, 4.327174794786743375E-16 ) ) ;
#157 = AXIS2_PLACEMENT_3D ( 'NONE', #222, #88, #53 ) ;
#158 = DIRECTION ( 'NONE',  ( 3.491481338843133355E-15, -1.224646799147353207E-16, 1.000000000000000000 ) ) ;
#159 = COORDINATED_UNIVERSAL_TIME_OFFSET ( 1, 0, .AHEAD. ) ;
#160 = CC_DESIGN_PERSON_AND_ORGANIZATION_ASSIGNMENT ( #20, #57, ( #16 ) ) ;
#161 = CIRCLE ( 'NONE', #157, 2.999999999999998224 ) ;
#162 = DATE_AND_TIME ( #103, #233 ) ;
#163 = DATE_TIME_ROLE ( 'creation_date' ) ;
#164 = ORIENTED_EDGE ( 'NONE', *, *, #213, .T. ) ;
#165 = PERSON_AND_ORGANIZATION ( #201, #205 ) ;
#166 = EDGE_CURVE ( 'NONE', #116, #116, #161, .T. ) ;
#167 = AXIS2_PLACEMENT_3D ( 'NONE', #152, #257, #194 ) ;
#168 = FACE_OUTER_BOUND ( 'NONE', #102, .T. ) ;
#169 = ORIENTED_EDGE ( 'NONE', *, *, #182, .T. ) ;
#170 = APPROVAL ( #73, 'UNSPECIFIED' ) ;
#171 = APPLICATION_CONTEXT ( 'configuration controlled 3d designs of mechanical parts and assemblies' ) ;
#172 = AXIS2_PLACEMENT_3D ( 'NONE', #67, #234, #26 ) ;
#173 = FACE_BOUND ( 'NONE', #40, .T. ) ;
#174 = DIRECTION ( 'NONE',  ( -4.108650548026093811E-31, -1.000000000000000000, -1.156482317317868767E-16 ) ) ;
#175 = CC_DESIGN_PERSON_AND_ORGANIZATION_ASSIGNMENT ( #226, #184, ( #126 ) ) ;
#176 = ORIENTED_EDGE ( 'NONE', *, *, #166, .F. ) ;
#177 = CARTESIAN_POINT ( 'NONE',  ( 2.733829888314172723E-13, 2.999999999999992006, 78.29999999999998295 ) ) ;
#178 = AXIS2_PLACEMENT_3D ( 'NONE', #70, #12, #14 ) ;
#179 = APPROVAL_PERSON_ORGANIZATION ( #120, #170, #247 ) ;
#180 = CARTESIAN_POINT ( 'NONE',  ( 8.519214466777244125E-14, -1.875000000000014877, 24.39999999999999858 ) ) ;
#181 = FACE_OUTER_BOUND ( 'NONE', #75, .T. ) ;
#182 = EDGE_CURVE ( 'NONE', #197, #197, #66, .T. ) ;
#183 = CARTESIAN_POINT ( 'NONE',  ( 8.519214466777244125E-14, 2.249639673992778475E-32, 24.39999999999999858 ) ) ;
#184 = PERSON_AND_ORGANIZATION_ROLE ( 'creator' ) ;
#185 = AXIS2_PLACEMENT_3D ( 'NONE', #183, #158, #239 ) ;
#186 = DIRECTION ( 'NONE',  ( 0.0000000000000000000, 0.0000000000000000000, 1.000000000000000000 ) ) ;
#187 = PERSON_AND_ORGANIZATION ( #201, #205 ) ;
#188 = EDGE_LOOP ( 'NONE', ( #176 ) ) ;
#189 = SHAPE_DEFINITION_REPRESENTATION ( #4, #260 ) ;
#190 = ORIENTED_EDGE ( 'NONE', *, *, #47, .T. ) ;
#191 = EDGE_LOOP ( 'NONE', ( #79 ) ) ;
#192 = DIRECTION ( 'NONE',  ( 0.0000000000000000000, -1.000000000000000000, 0.0000000000000000000 ) ) ;
#193 = FACE_OUTER_BOUND ( 'NONE', #191, .T. ) ;
#194 = DIRECTION ( 'NONE',  ( 4.275831445896958607E-31, 1.000000000000000000, 1.224646799147353454E-16 ) ) ;
#195 = EDGE_CURVE ( 'NONE', #13, #13, #98, .T. ) ;
#196 = CARTESIAN_POINT ( 'NONE',  ( 9.985636629091361396E-14, 2.008974596215559849, 28.60000000000000142 ) ) ;
#197 = VERTEX_POINT ( 'NONE', #114 ) ;
#198 = CIRCLE ( 'NONE', #45, 2.008974596215572284 ) ;
#199 = CC_DESIGN_SECURITY_CLASSIFICATION ( #80, ( #126 ) ) ;
#200 = FACE_OUTER_BOUND ( 'NONE', #61, .T. ) ;
#201 = PERSON ( 'UNSPECIFIED', 'UNSPECIFIED', 'UNSPECIFIED', ('UNSPECIFIED'), ('UNSPECIFIED'), ('UNSPECIFIED') ) ;
#202 =( NAMED_UNIT ( * ) SI_UNIT ( $, .STERADIAN. ) SOLID_ANGLE_UNIT ( ) );
#203 = CARTESIAN_POINT ( 'NONE',  ( 1.058495161832475765E-13, -3.000000000000011546, 30.31650635094608148 ) ) ;
#204 = CIRCLE ( 'NONE', #123, 1.875000000000004219 ) ;
#205 = ORGANIZATION ( 'UNSPECIFIED', 'UNSPECIFIED', '' ) ;
#206 = MANIFOLD_SOLID_BREP ( 'Corps-Déplacer/Copier1[2]', #85 ) ;
#207 = EDGE_LOOP ( 'NONE', ( #18 ) ) ;
#208 = DATE_AND_TIME ( #141, #154 ) ;
#209 = APPLICATION_PROTOCOL_DEFINITION ( 'international standard', 'config_control_design', 1994, #171 ) ;
#210 = EDGE_LOOP ( 'NONE', ( #6 ) ) ;
#211 = COORDINATED_UNIVERSAL_TIME_OFFSET ( 1, 0, .AHEAD. ) ;
#212 = DIRECTION ( 'NONE',  ( -4.275831445896958607E-31, -1.000000000000000000, -1.224646799147353207E-16 ) ) ;
#213 = EDGE_CURVE ( 'NONE', #15, #15, #131, .T. ) ;
#214 = AXIS2_PLACEMENT_3D ( 'NONE', #224, #262, #94 ) ;
#215 = DIRECTION ( 'NONE',  ( -3.491481338843133355E-15, 4.327174794786742882E-16, -1.000000000000000000 ) ) ;
#216 = ORIENTED_EDGE ( 'NONE', *, *, #91, .F. ) ;
#217 = CARTESIAN_POINT ( 'NONE',  ( 0.0000000000000000000, 0.0000000000000000000, 0.0000000000000000000 ) ) ;
#218 = CARTESIAN_POINT ( 'NONE',  ( 8.519214466777244125E-14, 2.249639673992778475E-32, 24.39999999999999858 ) ) ;
#219 = ADVANCED_FACE ( 'NONE', ( #200, #56 ), #117, .F. ) ;
#220 = DIRECTION ( 'NONE',  ( -3.491481338843133355E-15, 4.327174794786742882E-16, -1.000000000000000000 ) ) ;
#221 = UNCERTAINTY_MEASURE_WITH_UNIT (LENGTH_MEASURE( 1.000000000000000082E-05 ), #259, 'distance_accuracy_value', 'NONE');
#222 = CARTESIAN_POINT ( 'NONE',  ( 1.058495161832475765E-13, -1.311848221478060962E-14, 30.31650635094608148 ) ) ;
#223 = AXIS2_PLACEMENT_3D ( 'NONE', #217, #48, #127 ) ;
#224 = CARTESIAN_POINT ( 'NONE',  ( 3.812385842504467288E-15, -1.337204947137065176E-16, 1.091910702798618571 ) ) ;
#225 = CARTESIAN_POINT ( 'NONE',  ( 8.519214466777244125E-14, -1.055830649927965169E-14, 24.39999999999999858 ) ) ;
#226 = PERSON_AND_ORGANIZATION ( #201, #205 ) ;
#227 = AXIS2_PLACEMENT_3D ( 'NONE', #218, #82, #212 ) ;
#228 = APPROVAL_DATE_TIME ( #162, #170 ) ;
#229 = EDGE_LOOP ( 'NONE', ( #119 ) ) ;
#230 = MECHANICAL_CONTEXT ( 'NONE', #171, 'mechanical' ) ;
#231 = ADVANCED_FACE ( 'NONE', ( #92, #110 ), #137, .T. ) ;
#232 = DATE_TIME_ROLE ( 'classification_date' ) ;
#233 = LOCAL_TIME ( 14, 56, 58.00000000000000000, #97 ) ;
#234 = DIRECTION ( 'NONE',  ( 3.491481338843133355E-15, -4.327174794786742882E-16, 1.000000000000000000 ) ) ;
#235 = CC_DESIGN_APPROVAL ( #104, ( #80 ) ) ;
#236 = CYLINDRICAL_SURFACE ( 'NONE', #223, 1.875000000000004219 ) ;
#237 = DIRECTION ( 'NONE',  ( 4.275831445896958607E-31, 1.000000000000000000, 1.224646799147353207E-16 ) ) ;
#238 = DIRECTION ( 'NONE',  ( -3.491481338843133355E-15, 1.224646799147353207E-16, -1.000000000000000000 ) ) ;
#239 = DIRECTION ( 'NONE',  ( -4.275831445896958607E-31, -1.000000000000000000, -1.224646799147353207E-16 ) ) ;
#240 = CC_DESIGN_PERSON_AND_ORGANIZATION_ASSIGNMENT ( #142, #3, ( #126 ) ) ;
#241 = VERTEX_POINT ( 'NONE', #177 ) ;
#242 = CARTESIAN_POINT ( 'NONE',  ( 2.758270257686075477E-13, 2.299999999999992273, 79.00000000000000000 ) ) ;
#243 = PRODUCT_RELATED_PRODUCT_CATEGORY ( 'detail', '', ( #16 ) ) ;
#244 = CARTESIAN_POINT ( 'NONE',  ( 2.758270257686075477E-13, -9.674709713264090904E-15, 79.00000000000000000 ) ) ;
#245 = PERSON_AND_ORGANIZATION_ROLE ( 'classification_officer' ) ;
#246 = APPROVAL_ROLE ( '' ) ;
#247 = APPROVAL_ROLE ( '' ) ;
#248 = EDGE_LOOP ( 'NONE', ( #190 ) ) ;
#249 = CALENDAR_DATE ( 2021, 13, 10 ) ;
#250 = AXIS2_PLACEMENT_3D ( 'NONE', #84, #50, #44 ) ;
#251 = EDGE_LOOP ( 'NONE', ( #7 ) ) ;
#252 = DIRECTION ( 'NONE',  ( -3.491481338843133355E-15, 1.224646799147353207E-16, -1.000000000000000000 ) ) ;
#253 = CONICAL_SURFACE ( 'NONE', #214, 2.999999999999992450, 1.221730476396026610 ) ;
#254 = DIRECTION ( 'NONE',  ( 0.0000000000000000000, 1.000000000000000000, 0.0000000000000000000 ) ) ;
#255 = ADVANCED_FACE ( 'NONE', ( #72 ), #253, .T. ) ;
#256 = PLANE ( 'NONE',  #227 ) ;
#257 = DIRECTION ( 'NONE',  ( -3.491481338843133355E-15, 1.224646799147353207E-16, -1.000000000000000000 ) ) ;
#258 =( GEOMETRIC_REPRESENTATION_CONTEXT ( 3 ) GLOBAL_UNCERTAINTY_ASSIGNED_CONTEXT ( ( #221 ) ) GLOBAL_UNIT_ASSIGNED_CONTEXT ( ( #259, #55, #202 ) ) REPRESENTATION_CONTEXT ( 'NONE', 'WORKASPACE' ) );
#259 =( LENGTH_UNIT ( ) NAMED_UNIT ( * ) SI_UNIT ( .MILLI., .METRE. ) );
#260 = ADVANCED_BREP_SHAPE_REPRESENTATION ( '960153', ( #25, #206, #90 ), #258 ) ;
#261 = DIRECTION ( 'NONE',  ( -3.491481338843133355E-15, 1.224646799147353207E-16, -1.000000000000000000 ) ) ;
#262 = DIRECTION ( 'NONE',  ( 3.491481338843133355E-15, -1.224646799147353207E-16, 1.000000000000000000 ) ) ;
#263 = AXIS2_PLACEMENT_3D ( 'NONE', #71, #220, #136 ) ;
ENDSEC;
END-ISO-10303-21;
