ISO-10303-21;
HEADER;
FILE_DESCRIPTION (( 'STEP AP203' ),
    '1' );
FILE_NAME ('960152.step',
    '2021-10-13T12:56:57',
    ( '' ),
    ( '' ),
    'SwSTEP 2.0',
    'SolidWorks 2019',
    '' );
FILE_SCHEMA (( 'CONFIG_CONTROL_DESIGN' ));
ENDSEC;

DATA;
#1 = DIRECTION ( 'NONE',  ( 4.275831445896958607E-31, 1.000000000000000000, 1.224646799147353454E-16 ) ) ;
#2 = DIRECTION ( 'NONE',  ( 1.510825004591027855E-30, 1.000000000000000000, 4.327174794786742389E-16 ) ) ;
#3 = DIRECTION ( 'NONE',  ( -3.491481338843133355E-15, 1.224646799147353207E-16, -1.000000000000000000 ) ) ;
#4 = CLOSED_SHELL ( 'NONE', ( #41, #20, #233, #244, #114, #228, #159 ) ) ;
#5 = EDGE_CURVE ( 'NONE', #212, #212, #258, .T. ) ;
#6 = FACE_OUTER_BOUND ( 'NONE', #250, .T. ) ;
#7 = CARTESIAN_POINT ( 'NONE',  ( 9.182595921157440093E-14, -1.127570259384924611E-14, 26.30000000000000071 ) ) ;
#8 = CC_DESIGN_PERSON_AND_ORGANIZATION_ASSIGNMENT ( #255, #32, ( #259 ) ) ;
#9 =( NAMED_UNIT ( * ) PLANE_ANGLE_UNIT ( ) SI_UNIT ( $, .RADIAN. ) );
#10 = EDGE_LOOP ( 'NONE', ( #179 ) ) ;
#11 = APPROVAL_STATUS ( 'not_yet_approved' ) ;
#12 = LOCAL_TIME ( 14, 56, 57.00000000000000000, #28 ) ;
#13 = DATE_TIME_ROLE ( 'creation_date' ) ;
#14 = ORIENTED_EDGE ( 'NONE', *, *, #37, .T. ) ;
#15 = EDGE_LOOP ( 'NONE', ( #88 ) ) ;
#16 = DIRECTION ( 'NONE',  ( 3.491481338843133355E-15, -4.327174794786742882E-16, 1.000000000000000000 ) ) ;
#17 = MANIFOLD_SOLID_BREP ( 'Corps-Déplacer/Copier1[2]', #180 ) ;
#18 = CARTESIAN_POINT ( 'NONE',  ( 7.960577452562345312E-14, -9.865958532113775033E-15, 22.80000000000000071 ) ) ;
#19 = EDGE_LOOP ( 'NONE', ( #39 ) ) ;
#20 = ADVANCED_FACE ( 'NONE', ( #221, #160 ), #139, .T. ) ;
#21 = ORIENTED_EDGE ( 'NONE', *, *, #83, .T. ) ;
#22 = AXIS2_PLACEMENT_3D ( 'NONE', #18, #59, #117 ) ;
#23 = DIRECTION ( 'NONE',  ( 0.0000000000000000000, -1.000000000000000000, 0.0000000000000000000 ) ) ;
#24 = CC_DESIGN_PERSON_AND_ORGANIZATION_ASSIGNMENT ( #34, #129, ( #94 ) ) ;
#25 = VERTEX_POINT ( 'NONE', #150 ) ;
#26 = VERTEX_POINT ( 'NONE', #167 ) ;
#27 = ADVANCED_FACE ( 'NONE', ( #120, #140 ), #143, .T. ) ;
#28 = COORDINATED_UNIVERSAL_TIME_OFFSET ( 1, 0, .AHEAD. ) ;
#29 = AXIS2_PLACEMENT_3D ( 'NONE', #141, #163, #203 ) ;
#30 = AXIS2_PLACEMENT_3D ( 'NONE', #194, #168, #126 ) ;
#31 = PERSON_AND_ORGANIZATION ( #124, #72 ) ;
#32 = PERSON_AND_ORGANIZATION_ROLE ( 'creator' ) ;
#33 = PRODUCT_DEFINITION_SHAPE ( 'NONE', 'NONE',  #259 ) ;
#34 = PERSON_AND_ORGANIZATION ( #124, #72 ) ;
#35 = CIRCLE ( 'NONE', #185, 1.750000000000003997 ) ;
#36 = APPROVAL_DATE_TIME ( #67, #201 ) ;
#37 = EDGE_CURVE ( 'NONE', #147, #147, #144, .T. ) ;
#38 = ORIENTED_EDGE ( 'NONE', *, *, #83, .F. ) ;
#39 = ORIENTED_EDGE ( 'NONE', *, *, #132, .F. ) ;
#40 = CC_DESIGN_APPROVAL ( #165, ( #98 ) ) ;
#41 = ADVANCED_FACE ( 'NONE', ( #96, #158 ), #206, .T. ) ;
#42 = DIRECTION ( 'NONE',  ( -3.491481338843133355E-15, 1.224646799147353207E-16, -1.000000000000000000 ) ) ;
#43 = DIRECTION ( 'NONE',  ( 3.491481338843133355E-15, -1.224646799147353207E-16, 1.000000000000000000 ) ) ;
#44 = AXIS2_PLACEMENT_3D ( 'NONE', #229, #3, #164 ) ;
#45 = LOCAL_TIME ( 14, 56, 57.00000000000000000, #256 ) ;
#46 = DIRECTION ( 'NONE',  ( -3.491481338843133355E-15, 4.327174794786742882E-16, -1.000000000000000000 ) ) ;
#47 = CC_DESIGN_PERSON_AND_ORGANIZATION_ASSIGNMENT ( #92, #218, ( #135 ) ) ;
#48 = FACE_OUTER_BOUND ( 'NONE', #257, .T. ) ;
#49 = AXIS2_PLACEMENT_3D ( 'NONE', #76, #46, #2 ) ;
#50 = CC_DESIGN_DATE_AND_TIME_ASSIGNMENT ( #133, #13, ( #259 ) ) ;
#51 = CARTESIAN_POINT ( 'NONE',  ( 2.733829888314172723E-13, 2.999999999999992006, 78.29999999999998295 ) ) ;
#52 = PERSON_AND_ORGANIZATION ( #124, #72 ) ;
#53 = AXIS2_PLACEMENT_3D ( 'NONE', #223, #42, #73 ) ;
#54 = DIRECTION ( 'NONE',  ( 0.0000000000000000000, 0.0000000000000000000, 1.000000000000000000 ) ) ;
#55 = COORDINATED_UNIVERSAL_TIME_OFFSET ( 1, 0, .AHEAD. ) ;
#56 = DIRECTION ( 'NONE',  ( 0.0000000000000000000, 1.000000000000000000, 0.0000000000000000000 ) ) ;
#57 = EDGE_LOOP ( 'NONE', ( #38 ) ) ;
#58 = PLANE ( 'NONE',  #29 ) ;
#59 = DIRECTION ( 'NONE',  ( -3.491481338843133355E-15, 1.224646799147353207E-16, -1.000000000000000000 ) ) ;
#60 = ORIENTED_EDGE ( 'NONE', *, *, #219, .T. ) ;
#61 = DIRECTION ( 'NONE',  ( -3.491481338843133355E-15, 1.224646799147353207E-16, -1.000000000000000000 ) ) ;
#62 = DIRECTION ( 'NONE',  ( -3.491481338843133355E-15, 4.327174794786742882E-16, -1.000000000000000000 ) ) ;
#63 = CC_DESIGN_DATE_AND_TIME_ASSIGNMENT ( #236, #196, ( #94 ) ) ;
#64 = CARTESIAN_POINT ( 'NONE',  ( 9.357169988099598654E-14, -1.159682845002847061E-14, 26.80000000000000071 ) ) ;
#65 = PLANE ( 'NONE',  #44 ) ;
#66 = CC_DESIGN_PERSON_AND_ORGANIZATION_ASSIGNMENT ( #31, #202, ( #98 ) ) ;
#67 = DATE_AND_TIME ( #251, #145 ) ;
#68 = CC_DESIGN_APPROVAL ( #201, ( #94 ) ) ;
#69 = EDGE_LOOP ( 'NONE', ( #14 ) ) ;
#70 = APPROVAL_STATUS ( 'not_yet_approved' ) ;
#71 = PERSON_AND_ORGANIZATION ( #124, #72 ) ;
#72 = ORGANIZATION ( 'UNSPECIFIED', 'UNSPECIFIED', '' ) ;
#73 = DIRECTION ( 'NONE',  ( -4.402125587170814422E-31, -1.000000000000000000, -1.239088197126287859E-16 ) ) ;
#74 = FACE_OUTER_BOUND ( 'NONE', #241, .T. ) ;
#75 = FACE_OUTER_BOUND ( 'NONE', #174, .T. ) ;
#76 = CARTESIAN_POINT ( 'NONE',  ( 0.0000000000000000000, 0.0000000000000000000, 0.0000000000000000000 ) ) ;
#77 = EDGE_LOOP ( 'NONE', ( #157 ) ) ;
#78 = CIRCLE ( 'NONE', #90, 1.750000000000007772 ) ;
#79 = APPROVAL_PERSON_ORGANIZATION ( #155, #119, #87 ) ;
#80 = DIRECTION ( 'NONE',  ( -3.491481338843133355E-15, 4.327174794786742882E-16, -1.000000000000000000 ) ) ;
#81 = CARTESIAN_POINT ( 'NONE',  ( 7.960577452562345312E-14, -1.750000000000013767, 22.80000000000000071 ) ) ;
#82 = TOROIDAL_SURFACE ( 'NONE', #121, 2.750000000000008438, 1.000000000000000000 ) ;
#83 = EDGE_CURVE ( 'NONE', #191, #191, #78, .T. ) ;
#84 = APPROVAL_DATE_TIME ( #137, #165 ) ;
#85 = UNCERTAINTY_MEASURE_WITH_UNIT (LENGTH_MEASURE( 1.000000000000000082E-05 ), #127, 'distance_accuracy_value', 'NONE');
#86 = ORIENTED_EDGE ( 'NONE', *, *, #5, .T. ) ;
#87 = APPROVAL_ROLE ( '' ) ;
#88 = ORIENTED_EDGE ( 'NONE', *, *, #188, .T. ) ;
#89 = CALENDAR_DATE ( 2021, 13, 10 ) ;
#90 = AXIS2_PLACEMENT_3D ( 'NONE', #118, #184, #262 ) ;
#91 = EDGE_LOOP ( 'NONE', ( #113 ) ) ;
#92 = PERSON_AND_ORGANIZATION ( #124, #72 ) ;
#93 = DIRECTION ( 'NONE',  ( 0.0000000000000000000, -1.000000000000000000, 0.0000000000000000000 ) ) ;
#94 = SECURITY_CLASSIFICATION ( '', '', #136 ) ;
#95 = DIRECTION ( 'NONE',  ( 0.0000000000000000000, -1.000000000000000000, 0.0000000000000000000 ) ) ;
#96 = FACE_OUTER_BOUND ( 'NONE', #15, .T. ) ;
#97 = EDGE_LOOP ( 'NONE', ( #238 ) ) ;
#98 = PRODUCT_DEFINITION_FORMATION_WITH_SPECIFIED_SOURCE ( 'ANY', '', #135, .NOT_KNOWN. ) ;
#99 = PLANE ( 'NONE',  #175 ) ;
#100 = DIRECTION ( 'NONE',  ( 1.510825004591027855E-30, 1.000000000000000000, 4.327174794786742882E-16 ) ) ;
#101 = AXIS2_PLACEMENT_3D ( 'NONE', #187, #16, #93 ) ;
#102 = AXIS2_PLACEMENT_3D ( 'NONE', #64, #80, #246 ) ;
#103 = CARTESIAN_POINT ( 'NONE',  ( 1.003207776573993188E-13, -3.000000000000011102, 28.73301270189219281 ) ) ;
#104 = CARTESIAN_POINT ( 'NONE',  ( 9.357169988099598654E-14, 1.883974596215558739, 26.80000000000000071 ) ) ;
#105 = DIRECTION ( 'NONE',  ( -5.135813185032641787E-31, -1.000000000000000000, -1.445602896647342861E-16 ) ) ;
#106 =( GEOMETRIC_REPRESENTATION_CONTEXT ( 3 ) GLOBAL_UNCERTAINTY_ASSIGNED_CONTEXT ( ( #85 ) ) GLOBAL_UNIT_ASSIGNED_CONTEXT ( ( #127, #9, #248 ) ) REPRESENTATION_CONTEXT ( 'NONE', 'WORKASPACE' ) );
#107 = DATE_AND_TIME ( #89, #12 ) ;
#108 = EDGE_LOOP ( 'NONE', ( #111 ) ) ;
#109 = CALENDAR_DATE ( 2021, 13, 10 ) ;
#110 = PRODUCT_RELATED_PRODUCT_CATEGORY ( 'detail', '', ( #135 ) ) ;
#111 = ORIENTED_EDGE ( 'NONE', *, *, #132, .T. ) ;
#112 = AXIS2_PLACEMENT_3D ( 'NONE', #176, #54, #249 ) ;
#113 = ORIENTED_EDGE ( 'NONE', *, *, #219, .F. ) ;
#114 = ADVANCED_FACE ( 'NONE', ( #162, #75 ), #149, .T. ) ;
#115 = DIRECTION ( 'NONE',  ( -3.491481338843133355E-15, 1.224646799147353207E-16, -1.000000000000000000 ) ) ;
#116 = APPLICATION_CONTEXT ( 'configuration controlled 3d designs of mechanical parts and assemblies' ) ;
#117 = DIRECTION ( 'NONE',  ( 0.0000000000000000000, -1.000000000000000000, 0.0000000000000000000 ) ) ;
#118 = CARTESIAN_POINT ( 'NONE',  ( 9.182595921157440093E-14, -1.138046971028913504E-14, 26.30000000000000071 ) ) ;
#119 = APPROVAL ( #200, 'UNSPECIFIED' ) ;
#120 = FACE_OUTER_BOUND ( 'NONE', #108, .T. ) ;
#121 = AXIS2_PLACEMENT_3D ( 'NONE', #7, #62, #100 ) ;
#122 = CIRCLE ( 'NONE', #170, 3.000000000000001332 ) ;
#123 = FACE_OUTER_BOUND ( 'NONE', #91, .T. ) ;
#124 = PERSON ( 'UNSPECIFIED', 'UNSPECIFIED', 'UNSPECIFIED', ('UNSPECIFIED'), ('UNSPECIFIED'), ('UNSPECIFIED') ) ;
#125 = DIRECTION ( 'NONE',  ( 0.0000000000000000000, 1.000000000000000000, 0.0000000000000000000 ) ) ;
#126 = DIRECTION ( 'NONE',  ( 1.510825004591027855E-30, 1.000000000000000000, 4.327174794786742389E-16 ) ) ;
#127 =( LENGTH_UNIT ( ) NAMED_UNIT ( * ) SI_UNIT ( .MILLI., .METRE. ) );
#128 = CC_DESIGN_PERSON_AND_ORGANIZATION_ASSIGNMENT ( #52, #178, ( #98 ) ) ;
#129 = PERSON_AND_ORGANIZATION_ROLE ( 'classification_officer' ) ;
#130 = APPROVAL_PERSON_ORGANIZATION ( #71, #165, #217 ) ;
#131 = APPLICATION_CONTEXT ( 'configuration controlled 3d designs of mechanical parts and assemblies' ) ;
#132 = EDGE_CURVE ( 'NONE', #25, #25, #35, .T. ) ;
#133 = DATE_AND_TIME ( #195, #153 ) ;
#134 = DESIGN_CONTEXT ( 'detailed design', #131, 'design' ) ;
#135 = PRODUCT ( '960152', '960152', '', ( #151 ) ) ;
#136 = SECURITY_CLASSIFICATION_LEVEL ( 'unclassified' ) ;
#137 = DATE_AND_TIME ( #234, #45 ) ;
#138 = FACE_OUTER_BOUND ( 'NONE', #57, .T. ) ;
#139 = CONICAL_SURFACE ( 'NONE', #213, 2.300000000000001599, 0.7853981633974337351 ) ;
#140 = FACE_OUTER_BOUND ( 'NONE', #10, .T. ) ;
#141 = CARTESIAN_POINT ( 'NONE',  ( 7.960577452562345312E-14, 2.249639673992779022E-32, 22.80000000000000071 ) ) ;
#142 = CARTESIAN_POINT ( 'NONE',  ( 2.758270257686075477E-13, -9.674709713264090904E-15, 79.00000000000000000 ) ) ;
#143 = CYLINDRICAL_SURFACE ( 'NONE', #49, 1.750000000000003997 ) ;
#144 = CIRCLE ( 'NONE', #53, 1.750000000000003997 ) ;
#145 = LOCAL_TIME ( 14, 56, 57.00000000000000000, #173 ) ;
#146 = CARTESIAN_POINT ( 'NONE',  ( 2.733829888314172723E-13, -9.588984437323771882E-15, 78.29999999999998295 ) ) ;
#147 = VERTEX_POINT ( 'NONE', #215 ) ;
#148 = VERTEX_POINT ( 'NONE', #51 ) ;
#149 = CONICAL_SURFACE ( 'NONE', #169, 3.500000000000010214, 0.5235987755983007030 ) ;
#150 = CARTESIAN_POINT ( 'NONE',  ( 7.960577452562345312E-14, -1.750000000000013767, 22.80000000000000071 ) ) ;
#151 = MECHANICAL_CONTEXT ( 'NONE', #116, 'mechanical' ) ;
#152 = ADVANCED_FACE ( 'NONE', ( #183 ), #58, .T. ) ;
#153 = LOCAL_TIME ( 14, 56, 57.00000000000000000, #232 ) ;
#154 = APPLICATION_PROTOCOL_DEFINITION ( 'international standard', 'config_control_design', 1994, #116 ) ;
#155 = PERSON_AND_ORGANIZATION ( #124, #72 ) ;
#156 = APPLICATION_PROTOCOL_DEFINITION ( 'international standard', 'config_control_design', 1994, #131 ) ;
#157 = ORIENTED_EDGE ( 'NONE', *, *, #263, .F. ) ;
#158 = FACE_OUTER_BOUND ( 'NONE', #97, .T. ) ;
#159 = ADVANCED_FACE ( 'NONE', ( #74 ), #99, .F. ) ;
#160 = FACE_BOUND ( 'NONE', #235, .T. ) ;
#161 = CC_DESIGN_SECURITY_CLASSIFICATION ( #94, ( #98 ) ) ;
#162 = FACE_BOUND ( 'NONE', #199, .T. ) ;
#163 = DIRECTION ( 'NONE',  ( 3.491481338843133355E-15, -1.224646799147353207E-16, 1.000000000000000000 ) ) ;
#164 = DIRECTION ( 'NONE',  ( 4.275831445896958607E-31, 1.000000000000000000, 1.224646799147353207E-16 ) ) ;
#165 = APPROVAL ( #70, 'UNSPECIFIED' ) ;
#166 = LOCAL_TIME ( 14, 56, 57.00000000000000000, #55 ) ;
#167 = CARTESIAN_POINT ( 'NONE',  ( 2.758270257686075477E-13, 2.299999999999992273, 79.00000000000000000 ) ) ;
#168 = DIRECTION ( 'NONE',  ( -3.491481338843133355E-15, 4.327174794786742882E-16, -1.000000000000000000 ) ) ;
#169 = AXIS2_PLACEMENT_3D ( 'NONE', #225, #205, #95 ) ;
#170 = AXIS2_PLACEMENT_3D ( 'NONE', #146, #61, #125 ) ;
#171 = CYLINDRICAL_SURFACE ( 'NONE', #30, 1.750000000000003997 ) ;
#172 = ADVANCED_BREP_SHAPE_REPRESENTATION ( '960152', ( #190, #17, #112 ), #106 ) ;
#173 = COORDINATED_UNIVERSAL_TIME_OFFSET ( 1, 0, .AHEAD. ) ;
#174 = EDGE_LOOP ( 'NONE', ( #186 ) ) ;
#175 = AXIS2_PLACEMENT_3D ( 'NONE', #224, #43, #207 ) ;
#176 = CARTESIAN_POINT ( 'NONE',  ( 0.0000000000000000000, 0.0000000000000000000, 0.0000000000000000000 ) ) ;
#177 = ORIENTED_EDGE ( 'NONE', *, *, #254, .F. ) ;
#178 = PERSON_AND_ORGANIZATION_ROLE ( 'creator' ) ;
#179 = ORIENTED_EDGE ( 'NONE', *, *, #37, .F. ) ;
#180 = CLOSED_SHELL ( 'NONE', ( #240, #27, #152 ) ) ;
#181 = CIRCLE ( 'NONE', #102, 1.883974596215570285 ) ;
#182 = CARTESIAN_POINT ( 'NONE',  ( 2.758270257686075477E-13, -9.674709713264090904E-15, 79.00000000000000000 ) ) ;
#183 = FACE_OUTER_BOUND ( 'NONE', #19, .T. ) ;
#184 = DIRECTION ( 'NONE',  ( -3.491481338843133355E-15, 4.327174794786742882E-16, -1.000000000000000000 ) ) ;
#185 = AXIS2_PLACEMENT_3D ( 'NONE', #242, #239, #23 ) ;
#186 = ORIENTED_EDGE ( 'NONE', *, *, #188, .F. ) ;
#187 = CARTESIAN_POINT ( 'NONE',  ( 1.003207776573993188E-13, -1.243327683419152302E-14, 28.73301270189219281 ) ) ;
#188 = EDGE_CURVE ( 'NONE', #230, #230, #222, .T. ) ;
#189 = FACE_OUTER_BOUND ( 'NONE', #69, .T. ) ;
#190 = MANIFOLD_SOLID_BREP ( 'Corps-Déplacer/Copier1[1]', #4 ) ;
#191 = VERTEX_POINT ( 'NONE', #211 ) ;
#192 = AXIS2_PLACEMENT_3D ( 'NONE', #237, #115, #1 ) ;
#193 = AXIS2_PLACEMENT_3D ( 'NONE', #243, #227, #105 ) ;
#194 = CARTESIAN_POINT ( 'NONE',  ( 0.0000000000000000000, 0.0000000000000000000, 0.0000000000000000000 ) ) ;
#195 = CALENDAR_DATE ( 2021, 13, 10 ) ;
#196 = DATE_TIME_ROLE ( 'classification_date' ) ;
#197 = ORIENTED_EDGE ( 'NONE', *, *, #5, .F. ) ;
#198 = SHAPE_DEFINITION_REPRESENTATION ( #33, #172 ) ;
#199 = EDGE_LOOP ( 'NONE', ( #177 ) ) ;
#200 = APPROVAL_STATUS ( 'not_yet_approved' ) ;
#201 = APPROVAL ( #11, 'UNSPECIFIED' ) ;
#202 = PERSON_AND_ORGANIZATION_ROLE ( 'design_supplier' ) ;
#203 = DIRECTION ( 'NONE',  ( -4.275831445896958607E-31, -1.000000000000000000, -1.224646799147353207E-16 ) ) ;
#204 = CC_DESIGN_APPROVAL ( #119, ( #259 ) ) ;
#205 = DIRECTION ( 'NONE',  ( 3.491481338843133355E-15, -4.327174794786742882E-16, 1.000000000000000000 ) ) ;
#206 = CYLINDRICAL_SURFACE ( 'NONE', #192, 2.999999999999998224 ) ;
#207 = DIRECTION ( 'NONE',  ( -4.275831445896958607E-31, -1.000000000000000000, -1.224646799147353207E-16 ) ) ;
#208 = AXIS2_PLACEMENT_3D ( 'NONE', #182, #260, #56 ) ;
#209 = DIRECTION ( 'NONE',  ( 0.0000000000000000000, 1.000000000000000000, 0.0000000000000000000 ) ) ;
#210 = CONICAL_SURFACE ( 'NONE', #193, 2.999999999999992450, 1.221730476396026610 ) ;
#211 = CARTESIAN_POINT ( 'NONE',  ( 9.182595921157440093E-14, 1.749999999999996669, 26.30000000000000071 ) ) ;
#212 = VERTEX_POINT ( 'NONE', #81 ) ;
#213 = AXIS2_PLACEMENT_3D ( 'NONE', #142, #226, #209 ) ;
#214 = FACE_OUTER_BOUND ( 'NONE', #261, .T. ) ;
#215 = CARTESIAN_POINT ( 'NONE',  ( 2.223891741460949901E-15, -1.750000000000003997, 0.6369479099658638122 ) ) ;
#216 = APPROVAL_ROLE ( '' ) ;
#217 = APPROVAL_ROLE ( '' ) ;
#218 = PERSON_AND_ORGANIZATION_ROLE ( 'design_owner' ) ;
#219 = EDGE_CURVE ( 'NONE', #26, #26, #253, .T. ) ;
#220 = PERSON_AND_ORGANIZATION ( #124, #72 ) ;
#221 = FACE_OUTER_BOUND ( 'NONE', #77, .T. ) ;
#222 = CIRCLE ( 'NONE', #101, 2.999999999999998224 ) ;
#223 = CARTESIAN_POINT ( 'NONE',  ( 2.223891741460950690E-15, -7.800362191632919842E-17, 0.6369479099658640342 ) ) ;
#224 = CARTESIAN_POINT ( 'NONE',  ( 7.960577452562345312E-14, 2.249639673992779022E-32, 22.80000000000000071 ) ) ;
#225 = CARTESIAN_POINT ( 'NONE',  ( 1.033444891936768358E-13, -1.280802116408163495E-14, 29.59903810567664806 ) ) ;
#226 = DIRECTION ( 'NONE',  ( -3.491481338843133355E-15, 1.224646799147353207E-16, -1.000000000000000000 ) ) ;
#227 = DIRECTION ( 'NONE',  ( 3.491481338843133355E-15, -1.224646799147353207E-16, 1.000000000000000000 ) ) ;
#228 = ADVANCED_FACE ( 'NONE', ( #138, #214 ), #82, .F. ) ;
#229 = CARTESIAN_POINT ( 'NONE',  ( 2.758270257686075477E-13, 1.724723750061123112E-32, 79.00000000000000000 ) ) ;
#230 = VERTEX_POINT ( 'NONE', #103 ) ;
#231 = APPROVAL_DATE_TIME ( #107, #119 ) ;
#232 = COORDINATED_UNIVERSAL_TIME_OFFSET ( 1, 0, .AHEAD. ) ;
#233 = ADVANCED_FACE ( 'NONE', ( #123 ), #65, .F. ) ;
#234 = CALENDAR_DATE ( 2021, 13, 10 ) ;
#235 = EDGE_LOOP ( 'NONE', ( #60 ) ) ;
#236 = DATE_AND_TIME ( #109, #166 ) ;
#237 = CARTESIAN_POINT ( 'NONE',  ( 0.0000000000000000000, 0.0000000000000000000, 0.0000000000000000000 ) ) ;
#238 = ORIENTED_EDGE ( 'NONE', *, *, #263, .T. ) ;
#239 = DIRECTION ( 'NONE',  ( -3.491481338843133355E-15, 1.224646799147353207E-16, -1.000000000000000000 ) ) ;
#240 = ADVANCED_FACE ( 'NONE', ( #189 ), #210, .T. ) ;
#241 = EDGE_LOOP ( 'NONE', ( #86 ) ) ;
#242 = CARTESIAN_POINT ( 'NONE',  ( 7.960577452562345312E-14, -9.865958532113775033E-15, 22.80000000000000071 ) ) ;
#243 = CARTESIAN_POINT ( 'NONE',  ( 3.812385842504467288E-15, -1.337204947137065176E-16, 1.091910702798618571 ) ) ;
#244 = ADVANCED_FACE ( 'NONE', ( #48, #6 ), #171, .T. ) ;
#245 = VERTEX_POINT ( 'NONE', #104 ) ;
#246 = DIRECTION ( 'NONE',  ( 0.0000000000000000000, 1.000000000000000000, 0.0000000000000000000 ) ) ;
#247 = APPROVAL_PERSON_ORGANIZATION ( #220, #201, #216 ) ;
#248 =( NAMED_UNIT ( * ) SI_UNIT ( $, .STERADIAN. ) SOLID_ANGLE_UNIT ( ) );
#249 = DIRECTION ( 'NONE',  ( 1.000000000000000000, 0.0000000000000000000, 0.0000000000000000000 ) ) ;
#250 = EDGE_LOOP ( 'NONE', ( #197 ) ) ;
#251 = CALENDAR_DATE ( 2021, 13, 10 ) ;
#252 = ORIENTED_EDGE ( 'NONE', *, *, #254, .T. ) ;
#253 = CIRCLE ( 'NONE', #208, 2.300000000000001599 ) ;
#254 = EDGE_CURVE ( 'NONE', #245, #245, #181, .T. ) ;
#255 = PERSON_AND_ORGANIZATION ( #124, #72 ) ;
#256 = COORDINATED_UNIVERSAL_TIME_OFFSET ( 1, 0, .AHEAD. ) ;
#257 = EDGE_LOOP ( 'NONE', ( #21 ) ) ;
#258 = CIRCLE ( 'NONE', #22, 1.750000000000003997 ) ;
#259 = PRODUCT_DEFINITION ( 'UNKNOWN', '', #98, #134 ) ;
#260 = DIRECTION ( 'NONE',  ( -3.491481338843133355E-15, 1.224646799147353207E-16, -1.000000000000000000 ) ) ;
#261 = EDGE_LOOP ( 'NONE', ( #252 ) ) ;
#262 = DIRECTION ( 'NONE',  ( 0.0000000000000000000, 1.000000000000000000, 0.0000000000000000000 ) ) ;
#263 = EDGE_CURVE ( 'NONE', #148, #148, #122, .T. ) ;
ENDSEC;
END-ISO-10303-21;
