ISO-10303-21;
HEADER;
FILE_DESCRIPTION (( 'STEP AP203' ),
    '1' );
FILE_NAME ('960151.step',
    '2021-10-13T12:56:57',
    ( '' ),
    ( '' ),
    'SwSTEP 2.0',
    'SolidWorks 2019',
    '' );
FILE_SCHEMA (( 'CONFIG_CONTROL_DESIGN' ));
ENDSEC;

DATA;
#1 = CARTESIAN_POINT ( 'NONE',  ( 7.716173758843325346E-14, 2.249639673992779022E-32, 22.10000000000000142 ) ) ;
#2 = ORIENTED_EDGE ( 'NONE', *, *, #237, .T. ) ;
#3 = DIRECTION ( 'NONE',  ( 1.510825004591027855E-30, 1.000000000000000000, 4.327174794786743375E-16 ) ) ;
#4 = CC_DESIGN_SECURITY_CLASSIFICATION ( #206, ( #11 ) ) ;
#5 = DIRECTION ( 'NONE',  ( -3.491481338843133355E-15, 4.327174794786742882E-16, -1.000000000000000000 ) ) ;
#6 = CARTESIAN_POINT ( 'NONE',  ( 7.716173758843325346E-14, -1.700000000000013500, 22.10000000000000142 ) ) ;
#7 = CARTESIAN_POINT ( 'NONE',  ( 9.782996373995257520E-14, -3.000000000000010658, 28.01961524227064260 ) ) ;
#8 = CARTESIAN_POINT ( 'NONE',  ( 9.077851480992147986E-14, -1.125065446644553307E-14, 26.00000000000000355 ) ) ;
#9 = DATE_TIME_ROLE ( 'creation_date' ) ;
#10 = APPROVAL_DATE_TIME ( #32, #80 ) ;
#11 = PRODUCT_DEFINITION_FORMATION_WITH_SPECIFIED_SOURCE ( 'ANY', '', #216, .NOT_KNOWN. ) ;
#12 = DIRECTION ( 'NONE',  ( 1.000000000000000000, 0.0000000000000000000, 0.0000000000000000000 ) ) ;
#13 = SECURITY_CLASSIFICATION_LEVEL ( 'unclassified' ) ;
#14 = ORIENTED_EDGE ( 'NONE', *, *, #235, .F. ) ;
#15 = CC_DESIGN_PERSON_AND_ORGANIZATION_ASSIGNMENT ( #239, #48, ( #11 ) ) ;
#16 = AXIS2_PLACEMENT_3D ( 'NONE', #18, #177, #71 ) ;
#17 = DIRECTION ( 'NONE',  ( 1.510825004591027855E-30, 1.000000000000000000, 4.327174794786743375E-16 ) ) ;
#18 = CARTESIAN_POINT ( 'NONE',  ( 9.782996373995257520E-14, -1.212457728359759462E-14, 28.01961524227064260 ) ) ;
#19 = EDGE_CURVE ( 'NONE', #127, #127, #98, .T. ) ;
#20 = PLANE ( 'NONE',  #59 ) ;
#21 = AXIS2_PLACEMENT_3D ( 'NONE', #1, #133, #261 ) ;
#22 = CARTESIAN_POINT ( 'NONE',  ( 7.716173758843325346E-14, -1.700000000000013500, 22.10000000000000142 ) ) ;
#23 = VERTEX_POINT ( 'NONE', #6 ) ;
#24 = ORIENTED_EDGE ( 'NONE', *, *, #148, .F. ) ;
#25 = EDGE_LOOP ( 'NONE', ( #93 ) ) ;
#26 = AXIS2_PLACEMENT_3D ( 'NONE', #45, #240, #12 ) ;
#27 = EDGE_LOOP ( 'NONE', ( #119 ) ) ;
#28 = CALENDAR_DATE ( 2021, 13, 10 ) ;
#29 = ADVANCED_FACE ( 'NONE', ( #246, #73 ), #188, .T. ) ;
#30 = PERSON_AND_ORGANIZATION_ROLE ( 'classification_officer' ) ;
#31 = CC_DESIGN_APPROVAL ( #34, ( #11 ) ) ;
#32 = DATE_AND_TIME ( #28, #259 ) ;
#33 = PERSON_AND_ORGANIZATION ( #176, #134 ) ;
#34 = APPROVAL ( #170, 'UNSPECIFIED' ) ;
#35 = FACE_OUTER_BOUND ( 'NONE', #25, .T. ) ;
#36 = CIRCLE ( 'NONE', #227, 1.833974596215569131 ) ;
#37 = DIRECTION ( 'NONE',  ( -3.491481338843133355E-15, 1.224646799147353207E-16, -1.000000000000000000 ) ) ;
#38 = DIRECTION ( 'NONE',  ( 0.0000000000000000000, 1.000000000000000000, 0.0000000000000000000 ) ) ;
#39 = CC_DESIGN_PERSON_AND_ORGANIZATION_ASSIGNMENT ( #70, #241, ( #144 ) ) ;
#40 = DIRECTION ( 'NONE',  ( -4.531599869146426895E-31, -1.000000000000000000, -1.275531967630002287E-16 ) ) ;
#41 = AXIS2_PLACEMENT_3D ( 'NONE', #225, #153, #40 ) ;
#42 = CARTESIAN_POINT ( 'NONE',  ( 3.812385842504467288E-15, -1.337204947137065176E-16, 1.091910702798618571 ) ) ;
#43 = CARTESIAN_POINT ( 'NONE',  ( 8.903277414049989425E-14, -1.084202172485504434E-14, 25.50000000000000000 ) ) ;
#44 = ORIENTED_EDGE ( 'NONE', *, *, #237, .F. ) ;
#45 = CARTESIAN_POINT ( 'NONE',  ( 0.0000000000000000000, 0.0000000000000000000, 0.0000000000000000000 ) ) ;
#46 = PERSON_AND_ORGANIZATION ( #176, #134 ) ;
#47 = EDGE_LOOP ( 'NONE', ( #2 ) ) ;
#48 = PERSON_AND_ORGANIZATION_ROLE ( 'design_supplier' ) ;
#49 = APPLICATION_PROTOCOL_DEFINITION ( 'international standard', 'config_control_design', 1994, #248 ) ;
#50 = COORDINATED_UNIVERSAL_TIME_OFFSET ( 1, 0, .AHEAD. ) ;
#51 = AXIS2_PLACEMENT_3D ( 'NONE', #230, #122, #145 ) ;
#52 = CLOSED_SHELL ( 'NONE', ( #160, #29, #179, #117, #258, #224, #138 ) ) ;
#53 = DIRECTION ( 'NONE',  ( -3.491481338843133355E-15, 4.327174794786742882E-16, -1.000000000000000000 ) ) ;
#54 = CARTESIAN_POINT ( 'NONE',  ( 7.716173758843325346E-14, 2.249639673992779022E-32, 22.10000000000000142 ) ) ;
#55 = AXIS2_PLACEMENT_3D ( 'NONE', #120, #221, #38 ) ;
#56 = ADVANCED_FACE ( 'NONE', ( #262, #202 ), #181, .T. ) ;
#57 = DIRECTION ( 'NONE',  ( 0.0000000000000000000, 1.000000000000000000, 0.0000000000000000000 ) ) ;
#58 = FACE_OUTER_BOUND ( 'NONE', #114, .T. ) ;
#59 = AXIS2_PLACEMENT_3D ( 'NONE', #96, #182, #242 ) ;
#60 = DIRECTION ( 'NONE',  ( 3.491481338843133355E-15, -1.224646799147353207E-16, 1.000000000000000000 ) ) ;
#61 = CARTESIAN_POINT ( 'NONE',  ( 1.008536752762300795E-13, -1.249932161348770656E-14, 28.88564064605509429 ) ) ;
#62 =( NAMED_UNIT ( * ) PLANE_ANGLE_UNIT ( ) SI_UNIT ( $, .RADIAN. ) );
#63 = AXIS2_PLACEMENT_3D ( 'NONE', #161, #251, #159 ) ;
#64 =( NAMED_UNIT ( * ) SI_UNIT ( $, .STERADIAN. ) SOLID_ANGLE_UNIT ( ) );
#65 = PRODUCT_RELATED_PRODUCT_CATEGORY ( 'detail', '', ( #216 ) ) ;
#66 = ORIENTED_EDGE ( 'NONE', *, *, #19, .T. ) ;
#67 = APPROVAL_STATUS ( 'not_yet_approved' ) ;
#68 = CONICAL_SURFACE ( 'NONE', #124, 2.999999999999992450, 1.221730476396026610 ) ;
#69 = APPROVAL_ROLE ( '' ) ;
#70 = PERSON_AND_ORGANIZATION ( #176, #134 ) ;
#71 = DIRECTION ( 'NONE',  ( 0.0000000000000000000, -1.000000000000000000, 0.0000000000000000000 ) ) ;
#72 = CIRCLE ( 'NONE', #232, 1.700000000000007949 ) ;
#73 = FACE_BOUND ( 'NONE', #126, .T. ) ;
#74 = PLANE ( 'NONE',  #21 ) ;
#75 = CC_DESIGN_DATE_AND_TIME_ASSIGNMENT ( #254, #110, ( #206 ) ) ;
#76 = DIRECTION ( 'NONE',  ( 0.0000000000000000000, 1.000000000000000000, 0.0000000000000000000 ) ) ;
#77 = FACE_OUTER_BOUND ( 'NONE', #82, .T. ) ;
#78 = CARTESIAN_POINT ( 'NONE',  ( 2.733829888314172723E-13, 2.999999999999992006, 78.29999999999998295 ) ) ;
#79 =( LENGTH_UNIT ( ) NAMED_UNIT ( * ) SI_UNIT ( .MILLI., .METRE. ) );
#80 = APPROVAL ( #218, 'UNSPECIFIED' ) ;
#81 = EDGE_LOOP ( 'NONE', ( #66 ) ) ;
#82 = EDGE_LOOP ( 'NONE', ( #44 ) ) ;
#83 = ADVANCED_BREP_SHAPE_REPRESENTATION ( '960151', ( #234, #139, #26 ), #97 ) ;
#84 = DATE_AND_TIME ( #85, #245 ) ;
#85 = CALENDAR_DATE ( 2021, 13, 10 ) ;
#86 = COORDINATED_UNIVERSAL_TIME_OFFSET ( 1, 0, .AHEAD. ) ;
#87 = ORIENTED_EDGE ( 'NONE', *, *, #191, .T. ) ;
#88 = EDGE_LOOP ( 'NONE', ( #103 ) ) ;
#89 = AXIS2_PLACEMENT_3D ( 'NONE', #135, #223, #200 ) ;
#90 = CARTESIAN_POINT ( 'NONE',  ( 0.0000000000000000000, 0.0000000000000000000, 0.0000000000000000000 ) ) ;
#91 = CC_DESIGN_PERSON_AND_ORGANIZATION_ASSIGNMENT ( #194, #30, ( #206 ) ) ;
#92 = ORIENTED_EDGE ( 'NONE', *, *, #243, .F. ) ;
#93 = ORIENTED_EDGE ( 'NONE', *, *, #186, .F. ) ;
#94 = CC_DESIGN_APPROVAL ( #111, ( #206 ) ) ;
#95 = ORIENTED_EDGE ( 'NONE', *, *, #148, .T. ) ;
#96 = CARTESIAN_POINT ( 'NONE',  ( 2.758270257686075477E-13, 1.724723750061123112E-32, 79.00000000000000000 ) ) ;
#97 =( GEOMETRIC_REPRESENTATION_CONTEXT ( 3 ) GLOBAL_UNCERTAINTY_ASSIGNED_CONTEXT ( ( #171 ) ) GLOBAL_UNIT_ASSIGNED_CONTEXT ( ( #79, #62, #64 ) ) REPRESENTATION_CONTEXT ( 'NONE', 'WORKASPACE' ) );
#98 = CIRCLE ( 'NONE', #41, 1.700000000000003952 ) ;
#99 = FACE_BOUND ( 'NONE', #130, .T. ) ;
#100 = CC_DESIGN_PERSON_AND_ORGANIZATION_ASSIGNMENT ( #108, #193, ( #216 ) ) ;
#101 = VERTEX_POINT ( 'NONE', #252 ) ;
#102 = APPLICATION_CONTEXT ( 'configuration controlled 3d designs of mechanical parts and assemblies' ) ;
#103 = ORIENTED_EDGE ( 'NONE', *, *, #191, .F. ) ;
#104 = APPROVAL_PERSON_ORGANIZATION ( #46, #34, #166 ) ;
#105 = EDGE_LOOP ( 'NONE', ( #253 ) ) ;
#106 = DIRECTION ( 'NONE',  ( -3.491481338843133355E-15, 4.327174794786742882E-16, -1.000000000000000000 ) ) ;
#107 = CC_DESIGN_DATE_AND_TIME_ASSIGNMENT ( #84, #9, ( #144 ) ) ;
#108 = PERSON_AND_ORGANIZATION ( #176, #134 ) ;
#109 = EDGE_LOOP ( 'NONE', ( #199 ) ) ;
#110 = DATE_TIME_ROLE ( 'classification_date' ) ;
#111 = APPROVAL ( #67, 'UNSPECIFIED' ) ;
#112 = COORDINATED_UNIVERSAL_TIME_OFFSET ( 1, 0, .AHEAD. ) ;
#113 = CALENDAR_DATE ( 2021, 13, 10 ) ;
#114 = EDGE_LOOP ( 'NONE', ( #87 ) ) ;
#115 = AXIS2_PLACEMENT_3D ( 'NONE', #61, #207, #146 ) ;
#116 = PLANE ( 'NONE',  #169 ) ;
#117 = ADVANCED_FACE ( 'NONE', ( #249, #35 ), #247, .T. ) ;
#118 = DIRECTION ( 'NONE',  ( 4.275831445896958607E-31, 1.000000000000000000, 1.224646799147353454E-16 ) ) ;
#119 = ORIENTED_EDGE ( 'NONE', *, *, #19, .F. ) ;
#120 = CARTESIAN_POINT ( 'NONE',  ( 2.758270257686075477E-13, -9.674709713264090904E-15, 79.00000000000000000 ) ) ;
#121 = FACE_OUTER_BOUND ( 'NONE', #164, .T. ) ;
#122 = DIRECTION ( 'NONE',  ( -3.491481338843133355E-15, 1.224646799147353207E-16, -1.000000000000000000 ) ) ;
#123 = VERTEX_POINT ( 'NONE', #22 ) ;
#124 = AXIS2_PLACEMENT_3D ( 'NONE', #42, #60, #142 ) ;
#125 = FACE_OUTER_BOUND ( 'NONE', #105, .T. ) ;
#126 = EDGE_LOOP ( 'NONE', ( #95 ) ) ;
#127 = VERTEX_POINT ( 'NONE', #184 ) ;
#128 = CIRCLE ( 'NONE', #16, 2.999999999999998224 ) ;
#129 = DATE_AND_TIME ( #168, #178 ) ;
#130 = EDGE_LOOP ( 'NONE', ( #92 ) ) ;
#131 = COORDINATED_UNIVERSAL_TIME_OFFSET ( 1, 0, .AHEAD. ) ;
#132 = APPROVAL_ROLE ( '' ) ;
#133 = DIRECTION ( 'NONE',  ( 3.491481338843133355E-15, -1.224646799147353207E-16, 1.000000000000000000 ) ) ;
#134 = ORGANIZATION ( 'UNSPECIFIED', 'UNSPECIFIED', '' ) ;
#135 = CARTESIAN_POINT ( 'NONE',  ( 7.716173758843325346E-14, -9.563056296478702716E-15, 22.10000000000000142 ) ) ;
#136 = AXIS2_PLACEMENT_3D ( 'NONE', #180, #53, #17 ) ;
#137 = FACE_OUTER_BOUND ( 'NONE', #109, .T. ) ;
#138 = ADVANCED_FACE ( 'NONE', ( #175 ), #74, .F. ) ;
#139 = MANIFOLD_SOLID_BREP ( 'Corps-Déplacer/Copier1[2]', #222 ) ;
#140 = DIRECTION ( 'NONE',  ( -3.491481338843133355E-15, 1.224646799147353207E-16, -1.000000000000000000 ) ) ;
#141 = AXIS2_PLACEMENT_3D ( 'NONE', #244, #140, #57 ) ;
#142 = DIRECTION ( 'NONE',  ( -5.135813185032641787E-31, -1.000000000000000000, -1.445602896647342861E-16 ) ) ;
#143 = DIRECTION ( 'NONE',  ( 1.510825004591027855E-30, 1.000000000000000000, 4.327174794786742882E-16 ) ) ;
#144 = PRODUCT_DEFINITION ( 'UNKNOWN', '', #11, #215 ) ;
#145 = DIRECTION ( 'NONE',  ( 0.0000000000000000000, 1.000000000000000000, 0.0000000000000000000 ) ) ;
#146 = DIRECTION ( 'NONE',  ( 0.0000000000000000000, -1.000000000000000000, 0.0000000000000000000 ) ) ;
#147 = COORDINATED_UNIVERSAL_TIME_OFFSET ( 1, 0, .AHEAD. ) ;
#148 = EDGE_CURVE ( 'NONE', #211, #211, #260, .T. ) ;
#149 = PERSON_AND_ORGANIZATION ( #176, #134 ) ;
#150 = APPROVAL_PERSON_ORGANIZATION ( #173, #111, #69 ) ;
#151 = MECHANICAL_CONTEXT ( 'NONE', #102, 'mechanical' ) ;
#152 = ADVANCED_FACE ( 'NONE', ( #137 ), #116, .T. ) ;
#153 = DIRECTION ( 'NONE',  ( -3.491481338843133355E-15, 1.224646799147353207E-16, -1.000000000000000000 ) ) ;
#154 = DIRECTION ( 'NONE',  ( -3.491481338843133355E-15, 4.327174794786742882E-16, -1.000000000000000000 ) ) ;
#155 = FACE_OUTER_BOUND ( 'NONE', #196, .T. ) ;
#156 = DIRECTION ( 'NONE',  ( 3.491481338843133355E-15, -1.224646799147353207E-16, 1.000000000000000000 ) ) ;
#157 = CC_DESIGN_PERSON_AND_ORGANIZATION_ASSIGNMENT ( #33, #257, ( #11 ) ) ;
#158 = DIRECTION ( 'NONE',  ( -4.275831445896958607E-31, -1.000000000000000000, -1.224646799147353207E-16 ) ) ;
#159 = DIRECTION ( 'NONE',  ( 0.0000000000000000000, -1.000000000000000000, 0.0000000000000000000 ) ) ;
#160 = ADVANCED_FACE ( 'NONE', ( #58, #121 ), #229, .T. ) ;
#161 = CARTESIAN_POINT ( 'NONE',  ( 7.716173758843325346E-14, -9.563056296478702716E-15, 22.10000000000000142 ) ) ;
#162 = VERTEX_POINT ( 'NONE', #233 ) ;
#163 = TOROIDAL_SURFACE ( 'NONE', #263, 2.700000000000007727, 1.000000000000001776 ) ;
#164 = EDGE_LOOP ( 'NONE', ( #210 ) ) ;
#165 = DIRECTION ( 'NONE',  ( -3.491481338843133355E-15, 4.327174794786742882E-16, -1.000000000000000000 ) ) ;
#166 = APPROVAL_ROLE ( '' ) ;
#167 = EDGE_LOOP ( 'NONE', ( #214 ) ) ;
#168 = CALENDAR_DATE ( 2021, 13, 10 ) ;
#169 = AXIS2_PLACEMENT_3D ( 'NONE', #54, #156, #158 ) ;
#170 = APPROVAL_STATUS ( 'not_yet_approved' ) ;
#171 = UNCERTAINTY_MEASURE_WITH_UNIT (LENGTH_MEASURE( 1.000000000000000082E-05 ), #79, 'distance_accuracy_value', 'NONE');
#172 = DATE_AND_TIME ( #220, #217 ) ;
#173 = PERSON_AND_ORGANIZATION ( #176, #134 ) ;
#174 = AXIS2_PLACEMENT_3D ( 'NONE', #204, #37, #118 ) ;
#175 = FACE_OUTER_BOUND ( 'NONE', #238, .T. ) ;
#176 = PERSON ( 'UNSPECIFIED', 'UNSPECIFIED', 'UNSPECIFIED', ('UNSPECIFIED'), ('UNSPECIFIED'), ('UNSPECIFIED') ) ;
#177 = DIRECTION ( 'NONE',  ( 3.491481338843133355E-15, -4.327174794786742882E-16, 1.000000000000000000 ) ) ;
#178 = LOCAL_TIME ( 14, 56, 57.00000000000000000, #147 ) ;
#179 = ADVANCED_FACE ( 'NONE', ( #155 ), #20, .F. ) ;
#180 = CARTESIAN_POINT ( 'NONE',  ( 0.0000000000000000000, 0.0000000000000000000, 0.0000000000000000000 ) ) ;
#181 = CYLINDRICAL_SURFACE ( 'NONE', #136, 1.700000000000003952 ) ;
#182 = DIRECTION ( 'NONE',  ( -3.491481338843133355E-15, 1.224646799147353207E-16, -1.000000000000000000 ) ) ;
#183 = VERTEX_POINT ( 'NONE', #7 ) ;
#184 = CARTESIAN_POINT ( 'NONE',  ( 2.160351977419208543E-15, -1.700000000000003952, 0.6187493982525534841 ) ) ;
#185 = CARTESIAN_POINT ( 'NONE',  ( 2.758270257686075477E-13, 2.299999999999992273, 79.00000000000000000 ) ) ;
#186 = EDGE_CURVE ( 'NONE', #123, #123, #212, .T. ) ;
#187 = APPROVAL_PERSON_ORGANIZATION ( #149, #80, #132 ) ;
#188 = CONICAL_SURFACE ( 'NONE', #55, 2.300000000000001599, 0.7853981633974337351 ) ;
#189 = DIRECTION ( 'NONE',  ( 0.0000000000000000000, 1.000000000000000000, 0.0000000000000000000 ) ) ;
#190 = SHAPE_DEFINITION_REPRESENTATION ( #219, #83 ) ;
#191 = EDGE_CURVE ( 'NONE', #183, #183, #128, .T. ) ;
#192 = CIRCLE ( 'NONE', #51, 3.000000000000001332 ) ;
#193 = PERSON_AND_ORGANIZATION_ROLE ( 'design_owner' ) ;
#194 = PERSON_AND_ORGANIZATION ( #176, #134 ) ;
#195 = ORIENTED_EDGE ( 'NONE', *, *, #186, .T. ) ;
#196 = EDGE_LOOP ( 'NONE', ( #24 ) ) ;
#197 = CC_DESIGN_APPROVAL ( #80, ( #144 ) ) ;
#198 = CIRCLE ( 'NONE', #63, 1.700000000000003952 ) ;
#199 = ORIENTED_EDGE ( 'NONE', *, *, #208, .F. ) ;
#200 = DIRECTION ( 'NONE',  ( 0.0000000000000000000, -1.000000000000000000, 0.0000000000000000000 ) ) ;
#201 = ADVANCED_FACE ( 'NONE', ( #231 ), #68, .T. ) ;
#202 = FACE_OUTER_BOUND ( 'NONE', #27, .T. ) ;
#203 = CONICAL_SURFACE ( 'NONE', #115, 3.500000000000009770, 0.5235987755983007030 ) ;
#204 = CARTESIAN_POINT ( 'NONE',  ( 0.0000000000000000000, 0.0000000000000000000, 0.0000000000000000000 ) ) ;
#205 = CARTESIAN_POINT ( 'NONE',  ( 8.903277414049989425E-14, -1.103429572670619277E-14, 25.50000000000000000 ) ) ;
#206 = SECURITY_CLASSIFICATION ( '', '', #13 ) ;
#207 = DIRECTION ( 'NONE',  ( 3.491481338843133355E-15, -4.327174794786742882E-16, 1.000000000000000000 ) ) ;
#208 = EDGE_CURVE ( 'NONE', #23, #23, #198, .T. ) ;
#209 = VERTEX_POINT ( 'NONE', #78 ) ;
#210 = ORIENTED_EDGE ( 'NONE', *, *, #235, .T. ) ;
#211 = VERTEX_POINT ( 'NONE', #185 ) ;
#212 = CIRCLE ( 'NONE', #89, 1.700000000000003952 ) ;
#213 = APPROVAL_DATE_TIME ( #129, #111 ) ;
#214 = ORIENTED_EDGE ( 'NONE', *, *, #208, .T. ) ;
#215 = DESIGN_CONTEXT ( 'detailed design', #248, 'design' ) ;
#216 = PRODUCT ( '960151', '960151', '', ( #151 ) ) ;
#217 = LOCAL_TIME ( 14, 56, 57.00000000000000000, #50 ) ;
#218 = APPROVAL_STATUS ( 'not_yet_approved' ) ;
#219 = PRODUCT_DEFINITION_SHAPE ( 'NONE', 'NONE',  #144 ) ;
#220 = CALENDAR_DATE ( 2021, 13, 10 ) ;
#221 = DIRECTION ( 'NONE',  ( -3.491481338843133355E-15, 1.224646799147353207E-16, -1.000000000000000000 ) ) ;
#222 = CLOSED_SHELL ( 'NONE', ( #201, #56, #152 ) ) ;
#223 = DIRECTION ( 'NONE',  ( -3.491481338843133355E-15, 1.224646799147353207E-16, -1.000000000000000000 ) ) ;
#224 = ADVANCED_FACE ( 'NONE', ( #77, #125 ), #163, .F. ) ;
#225 = CARTESIAN_POINT ( 'NONE',  ( 2.160351977419209332E-15, -7.577494700443409678E-17, 0.6187493982525537062 ) ) ;
#226 = EDGE_LOOP ( 'NONE', ( #14 ) ) ;
#227 = AXIS2_PLACEMENT_3D ( 'NONE', #8, #165, #76 ) ;
#228 = AXIS2_PLACEMENT_3D ( 'NONE', #90, #154, #3 ) ;
#229 = CYLINDRICAL_SURFACE ( 'NONE', #174, 2.999999999999998224 ) ;
#230 = CARTESIAN_POINT ( 'NONE',  ( 2.733829888314172723E-13, -9.588984437323771882E-15, 78.29999999999998295 ) ) ;
#231 = FACE_OUTER_BOUND ( 'NONE', #81, .T. ) ;
#232 = AXIS2_PLACEMENT_3D ( 'NONE', #205, #5, #189 ) ;
#233 = CARTESIAN_POINT ( 'NONE',  ( 8.903277414049989425E-14, 1.699999999999996847, 25.50000000000000000 ) ) ;
#234 = MANIFOLD_SOLID_BREP ( 'Corps-Déplacer/Copier1[1]', #52 ) ;
#235 = EDGE_CURVE ( 'NONE', #209, #209, #192, .T. ) ;
#236 = FACE_OUTER_BOUND ( 'NONE', #88, .T. ) ;
#237 = EDGE_CURVE ( 'NONE', #162, #162, #72, .T. ) ;
#238 = EDGE_LOOP ( 'NONE', ( #195 ) ) ;
#239 = PERSON_AND_ORGANIZATION ( #176, #134 ) ;
#240 = DIRECTION ( 'NONE',  ( 0.0000000000000000000, 0.0000000000000000000, 1.000000000000000000 ) ) ;
#241 = PERSON_AND_ORGANIZATION_ROLE ( 'creator' ) ;
#242 = DIRECTION ( 'NONE',  ( 4.275831445896958607E-31, 1.000000000000000000, 1.224646799147353207E-16 ) ) ;
#243 = EDGE_CURVE ( 'NONE', #101, #101, #36, .T. ) ;
#244 = CARTESIAN_POINT ( 'NONE',  ( 2.758270257686075477E-13, -9.674709713264090904E-15, 79.00000000000000000 ) ) ;
#245 = LOCAL_TIME ( 14, 56, 57.00000000000000000, #112 ) ;
#246 = FACE_OUTER_BOUND ( 'NONE', #226, .T. ) ;
#247 = CYLINDRICAL_SURFACE ( 'NONE', #228, 1.700000000000003952 ) ;
#248 = APPLICATION_CONTEXT ( 'configuration controlled 3d designs of mechanical parts and assemblies' ) ;
#249 = FACE_OUTER_BOUND ( 'NONE', #47, .T. ) ;
#250 = APPLICATION_PROTOCOL_DEFINITION ( 'international standard', 'config_control_design', 1994, #102 ) ;
#251 = DIRECTION ( 'NONE',  ( -3.491481338843133355E-15, 1.224646799147353207E-16, -1.000000000000000000 ) ) ;
#252 = CARTESIAN_POINT ( 'NONE',  ( 9.077851480992147986E-14, 1.833974596215557806, 26.00000000000000355 ) ) ;
#253 = ORIENTED_EDGE ( 'NONE', *, *, #243, .T. ) ;
#254 = DATE_AND_TIME ( #113, #256 ) ;
#255 = APPROVAL_DATE_TIME ( #172, #34 ) ;
#256 = LOCAL_TIME ( 14, 56, 57.00000000000000000, #86 ) ;
#257 = PERSON_AND_ORGANIZATION_ROLE ( 'creator' ) ;
#258 = ADVANCED_FACE ( 'NONE', ( #99, #236 ), #203, .T. ) ;
#259 = LOCAL_TIME ( 14, 56, 57.00000000000000000, #131 ) ;
#260 = CIRCLE ( 'NONE', #141, 2.300000000000001599 ) ;
#261 = DIRECTION ( 'NONE',  ( -4.275831445896958607E-31, -1.000000000000000000, -1.224646799147353207E-16 ) ) ;
#262 = FACE_OUTER_BOUND ( 'NONE', #167, .T. ) ;
#263 = AXIS2_PLACEMENT_3D ( 'NONE', #43, #106, #143 ) ;
ENDSEC;
END-ISO-10303-21;
