ISO-10303-21;
HEADER;
FILE_DESCRIPTION (( 'STEP AP203' ),
    '1' );
FILE_NAME ('960150.step',
    '2021-10-13T12:56:56',
    ( '' ),
    ( '' ),
    'SwSTEP 2.0',
    'SolidWorks 2019',
    '' );
FILE_SCHEMA (( 'CONFIG_CONTROL_DESIGN' ));
ENDSEC;

DATA;
#1 = CIRCLE ( 'NONE', #193, 1.650000000000007905 ) ;
#2 = COORDINATED_UNIVERSAL_TIME_OFFSET ( 1, 0, .AHEAD. ) ;
#3 = PRODUCT_DEFINITION ( 'UNKNOWN', '', #191, #214 ) ;
#4 = APPROVAL_ROLE ( '' ) ;
#5 = SECURITY_CLASSIFICATION ( '', '', #247 ) ;
#6 = CYLINDRICAL_SURFACE ( 'NONE', #75, 2.999999999999998224 ) ;
#7 = ORIENTED_EDGE ( 'NONE', *, *, #84, .F. ) ;
#8 = EDGE_LOOP ( 'NONE', ( #256 ) ) ;
#9 = ORIENTED_EDGE ( 'NONE', *, *, #234, .F. ) ;
#10 = COORDINATED_UNIVERSAL_TIME_OFFSET ( 1, 0, .AHEAD. ) ;
#11 = FACE_OUTER_BOUND ( 'NONE', #154, .T. ) ;
#12 = AXIS2_PLACEMENT_3D ( 'NONE', #182, #113, #258 ) ;
#13 = APPROVAL_DATE_TIME ( #224, #107 ) ;
#14 = MANIFOLD_SOLID_BREP ( 'Corps-Déplacer/Copier1[1]', #41 ) ;
#15 = DIRECTION ( 'NONE',  ( -3.491481338843133355E-15, 1.224646799147353207E-16, -1.000000000000000000 ) ) ;
#16 = PRODUCT_RELATED_PRODUCT_CATEGORY ( 'detail', '', ( #183 ) ) ;
#17 = DIRECTION ( 'NONE',  ( 0.0000000000000000000, -1.000000000000000000, 0.0000000000000000000 ) ) ;
#18 = CONICAL_SURFACE ( 'NONE', #164, 2.999999999999992450, 1.221730476396026610 ) ;
#19 = CARTESIAN_POINT ( 'NONE',  ( 0.0000000000000000000, 0.0000000000000000000, 0.0000000000000000000 ) ) ;
#20 = DIRECTION ( 'NONE',  ( 4.275831445896958607E-31, 1.000000000000000000, 1.224646799147353454E-16 ) ) ;
#21 = VERTEX_POINT ( 'NONE', #161 ) ;
#22 = PERSON_AND_ORGANIZATION ( #138, #235 ) ;
#23 = DIRECTION ( 'NONE',  ( 3.491481338843133355E-15, -4.327174794786742882E-16, 1.000000000000000000 ) ) ;
#24 = CC_DESIGN_DATE_AND_TIME_ASSIGNMENT ( #26, #210, ( #5 ) ) ;
#25 = EDGE_LOOP ( 'NONE', ( #9 ) ) ;
#26 = DATE_AND_TIME ( #106, #155 ) ;
#27 = DATE_AND_TIME ( #28, #188 ) ;
#28 = CALENDAR_DATE ( 2021, 13, 10 ) ;
#29 = DIRECTION ( 'NONE',  ( -3.491481338843133355E-15, 1.224646799147353207E-16, -1.000000000000000000 ) ) ;
#30 = EDGE_CURVE ( 'NONE', #133, #133, #167, .T. ) ;
#31 = PLANE ( 'NONE',  #96 ) ;
#32 = PERSON_AND_ORGANIZATION ( #138, #235 ) ;
#33 = UNCERTAINTY_MEASURE_WITH_UNIT (LENGTH_MEASURE( 1.000000000000000082E-05 ), #184, 'distance_accuracy_value', 'NONE');
#34 = FACE_OUTER_BOUND ( 'NONE', #146, .T. ) ;
#35 = EDGE_CURVE ( 'NONE', #141, #141, #147, .T. ) ;
#36 = CARTESIAN_POINT ( 'NONE',  ( 0.0000000000000000000, 0.0000000000000000000, 0.0000000000000000000 ) ) ;
#37 = DIRECTION ( 'NONE',  ( -4.668921077302379012E-31, -1.000000000000000000, -1.314184451497578054E-16 ) ) ;
#38 = CONICAL_SURFACE ( 'NONE', #246, 2.300000000000001599, 0.7853981633974337351 ) ;
#39 = FACE_BOUND ( 'NONE', #135, .T. ) ;
#40 = DATE_AND_TIME ( #177, #45 ) ;
#41 = CLOSED_SHELL ( 'NONE', ( #262, #220, #178, #253, #88, #170, #245 ) ) ;
#42 = CC_DESIGN_DATE_AND_TIME_ASSIGNMENT ( #40, #123, ( #3 ) ) ;
#43 = EDGE_LOOP ( 'NONE', ( #172 ) ) ;
#44 = CARTESIAN_POINT ( 'NONE',  ( 2.096812213377467974E-15, -7.354627209253897049E-17, 0.6005508865392432671 ) ) ;
#45 = LOCAL_TIME ( 14, 56, 56.00000000000000000, #239 ) ;
#46 = SHAPE_DEFINITION_REPRESENTATION ( #94, #242 ) ;
#47 = EDGE_LOOP ( 'NONE', ( #69 ) ) ;
#48 = EDGE_LOOP ( 'NONE', ( #67 ) ) ;
#49 = EDGE_CURVE ( 'NONE', #263, #263, #102, .T. ) ;
#50 = EDGE_LOOP ( 'NONE', ( #52 ) ) ;
#51 = DIRECTION ( 'NONE',  ( -3.491481338843133355E-15, 1.224646799147353207E-16, -1.000000000000000000 ) ) ;
#52 = ORIENTED_EDGE ( 'NONE', *, *, #234, .T. ) ;
#53 = FACE_OUTER_BOUND ( 'NONE', #211, .T. ) ;
#54 = DIRECTION ( 'NONE',  ( 1.000000000000000000, 0.0000000000000000000, 0.0000000000000000000 ) ) ;
#55 =( NAMED_UNIT ( * ) PLANE_ANGLE_UNIT ( ) SI_UNIT ( $, .RADIAN. ) );
#56 =( GEOMETRIC_REPRESENTATION_CONTEXT ( 3 ) GLOBAL_UNCERTAINTY_ASSIGNED_CONTEXT ( ( #33 ) ) GLOBAL_UNIT_ASSIGNED_CONTEXT ( ( #184, #55, #57 ) ) REPRESENTATION_CONTEXT ( 'NONE', 'WORKASPACE' ) );
#57 =( NAMED_UNIT ( * ) SI_UNIT ( $, .STERADIAN. ) SOLID_ANGLE_UNIT ( ) );
#58 = PERSON_AND_ORGANIZATION_ROLE ( 'creator' ) ;
#59 = AXIS2_PLACEMENT_3D ( 'NONE', #76, #195, #118 ) ;
#60 = DIRECTION ( 'NONE',  ( -3.491481338843133355E-15, 4.327174794786742882E-16, -1.000000000000000000 ) ) ;
#61 = COORDINATED_UNIVERSAL_TIME_OFFSET ( 1, 0, .AHEAD. ) ;
#62 = CARTESIAN_POINT ( 'NONE',  ( 3.812385842504467288E-15, -1.337204947137065176E-16, 1.091910702798618571 ) ) ;
#63 = AXIS2_PLACEMENT_3D ( 'NONE', #44, #15, #37 ) ;
#64 = CYLINDRICAL_SURFACE ( 'NONE', #252, 1.650000000000003908 ) ;
#65 = DIRECTION ( 'NONE',  ( 1.510825004591027679E-30, 1.000000000000000000, 4.327174794786742882E-16 ) ) ;
#66 = CC_DESIGN_PERSON_AND_ORGANIZATION_ASSIGNMENT ( #192, #105, ( #5 ) ) ;
#67 = ORIENTED_EDGE ( 'NONE', *, *, #49, .T. ) ;
#68 = CIRCLE ( 'NONE', #236, 2.300000000000001599 ) ;
#69 = ORIENTED_EDGE ( 'NONE', *, *, #204, .F. ) ;
#70 = PLANE ( 'NONE',  #136 ) ;
#71 = MECHANICAL_CONTEXT ( 'NONE', #93, 'mechanical' ) ;
#72 = FACE_OUTER_BOUND ( 'NONE', #50, .T. ) ;
#73 = CONICAL_SURFACE ( 'NONE', #216, 3.500000000000009326, 0.5235987755983003700 ) ;
#74 = CARTESIAN_POINT ( 'NONE',  ( 9.568829795639012598E-14, -1.185914948095153303E-14, 27.40621778264908315 ) ) ;
#75 = AXIS2_PLACEMENT_3D ( 'NONE', #19, #185, #20 ) ;
#76 = CARTESIAN_POINT ( 'NONE',  ( 8.658873720330970721E-14, -1.084202172485504434E-14, 24.80000000000000071 ) ) ;
#77 = DIRECTION ( 'NONE',  ( 0.0000000000000000000, -1.000000000000000000, 0.0000000000000000000 ) ) ;
#78 = CARTESIAN_POINT ( 'NONE',  ( 9.568829795639012598E-14, -3.000000000000010214, 27.40621778264908315 ) ) ;
#79 = APPROVAL_PERSON_ORGANIZATION ( #129, #261, #4 ) ;
#80 = PERSON_AND_ORGANIZATION ( #138, #235 ) ;
#81 = DIRECTION ( 'NONE',  ( 0.0000000000000000000, 1.000000000000000000, 0.0000000000000000000 ) ) ;
#82 = CARTESIAN_POINT ( 'NONE',  ( 9.871200949266763030E-14, -1.223389381084164338E-14, 28.27224318643353840 ) ) ;
#83 = AXIS2_PLACEMENT_3D ( 'NONE', #74, #23, #17 ) ;
#84 = EDGE_CURVE ( 'NONE', #21, #21, #1, .T. ) ;
#85 = FACE_OUTER_BOUND ( 'NONE', #114, .T. ) ;
#86 = COORDINATED_UNIVERSAL_TIME_OFFSET ( 1, 0, .AHEAD. ) ;
#87 = ORIENTED_EDGE ( 'NONE', *, *, #248, .T. ) ;
#88 = ADVANCED_FACE ( 'NONE', ( #39, #243 ), #73, .T. ) ;
#89 = DIRECTION ( 'NONE',  ( 0.0000000000000000000, -1.000000000000000000, 0.0000000000000000000 ) ) ;
#90 = ORIENTED_EDGE ( 'NONE', *, *, #132, .F. ) ;
#91 = DIRECTION ( 'NONE',  ( -3.491481338843133355E-15, 4.327174794786742882E-16, -1.000000000000000000 ) ) ;
#92 = DIRECTION ( 'NONE',  ( 3.491481338843133355E-15, -1.224646799147353207E-16, 1.000000000000000000 ) ) ;
#93 = APPLICATION_CONTEXT ( 'configuration controlled 3d designs of mechanical parts and assemblies' ) ;
#94 = PRODUCT_DEFINITION_SHAPE ( 'NONE', 'NONE',  #3 ) ;
#95 = EDGE_LOOP ( 'NONE', ( #158 ) ) ;
#96 = AXIS2_PLACEMENT_3D ( 'NONE', #229, #92, #250 ) ;
#97 = PERSON_AND_ORGANIZATION_ROLE ( 'creator' ) ;
#98 = APPROVAL_ROLE ( '' ) ;
#99 = DIRECTION ( 'NONE',  ( 0.0000000000000000000, 1.000000000000000000, 0.0000000000000000000 ) ) ;
#100 = PERSON_AND_ORGANIZATION ( #138, #235 ) ;
#101 = CARTESIAN_POINT ( 'NONE',  ( 7.506684878512736083E-14, 2.249639673992779022E-32, 21.50000000000000000 ) ) ;
#102 = CIRCLE ( 'NONE', #115, 1.650000000000003908 ) ;
#103 = DIRECTION ( 'NONE',  ( 3.491481338843133355E-15, -4.327174794786742882E-16, 1.000000000000000000 ) ) ;
#104 = DIRECTION ( 'NONE',  ( -4.275831445896958607E-31, -1.000000000000000000, -1.224646799147353207E-16 ) ) ;
#105 = PERSON_AND_ORGANIZATION_ROLE ( 'classification_officer' ) ;
#106 = CALENDAR_DATE ( 2021, 13, 10 ) ;
#107 = APPROVAL ( #205, 'UNSPECIFIED' ) ;
#108 = CARTESIAN_POINT ( 'NONE',  ( 7.506684878512736083E-14, -9.303425808791497196E-15, 21.50000000000000000 ) ) ;
#109 = ADVANCED_FACE ( 'NONE', ( #225 ), #124, .T. ) ;
#110 = TOROIDAL_SURFACE ( 'NONE', #59, 2.650000000000007017, 0.9999999999999995559 ) ;
#111 = DIRECTION ( 'NONE',  ( 0.0000000000000000000, 1.000000000000000000, 0.0000000000000000000 ) ) ;
#112 = APPROVAL_ROLE ( '' ) ;
#113 = DIRECTION ( 'NONE',  ( -3.491481338843133355E-15, 4.327174794786742882E-16, -1.000000000000000000 ) ) ;
#114 = EDGE_LOOP ( 'NONE', ( #7 ) ) ;
#115 = AXIS2_PLACEMENT_3D ( 'NONE', #160, #120, #77 ) ;
#116 = PERSON_AND_ORGANIZATION ( #138, #235 ) ;
#117 = DIRECTION ( 'NONE',  ( 0.0000000000000000000, 0.0000000000000000000, 1.000000000000000000 ) ) ;
#118 = DIRECTION ( 'NONE',  ( 1.510825004591027855E-30, 1.000000000000000000, 4.327174794786742882E-16 ) ) ;
#119 = CC_DESIGN_PERSON_AND_ORGANIZATION_ASSIGNMENT ( #80, #58, ( #191 ) ) ;
#120 = DIRECTION ( 'NONE',  ( -3.491481338843133355E-15, 1.224646799147353207E-16, -1.000000000000000000 ) ) ;
#121 = CC_DESIGN_APPROVAL ( #107, ( #191 ) ) ;
#122 = APPROVAL_PERSON_ORGANIZATION ( #32, #149, #112 ) ;
#123 = DATE_TIME_ROLE ( 'creation_date' ) ;
#124 = PLANE ( 'NONE',  #152 ) ;
#125 = APPLICATION_PROTOCOL_DEFINITION ( 'international standard', 'config_control_design', 1994, #173 ) ;
#126 = DIRECTION ( 'NONE',  ( 3.491481338843133355E-15, -1.224646799147353207E-16, 1.000000000000000000 ) ) ;
#127 = CIRCLE ( 'NONE', #130, 1.650000000000003908 ) ;
#128 = EDGE_LOOP ( 'NONE', ( #212 ) ) ;
#129 = PERSON_AND_ORGANIZATION ( #138, #235 ) ;
#130 = AXIS2_PLACEMENT_3D ( 'NONE', #108, #29, #89 ) ;
#131 = FACE_OUTER_BOUND ( 'NONE', #8, .T. ) ;
#132 = EDGE_CURVE ( 'NONE', #165, #165, #251, .T. ) ;
#133 = VERTEX_POINT ( 'NONE', #196 ) ;
#134 = ORIENTED_EDGE ( 'NONE', *, *, #132, .T. ) ;
#135 = EDGE_LOOP ( 'NONE', ( #90 ) ) ;
#136 = AXIS2_PLACEMENT_3D ( 'NONE', #240, #142, #215 ) ;
#137 = CC_DESIGN_APPROVAL ( #149, ( #3 ) ) ;
#138 = PERSON ( 'UNSPECIFIED', 'UNSPECIFIED', 'UNSPECIFIED', ('UNSPECIFIED'), ('UNSPECIFIED'), ('UNSPECIFIED') ) ;
#139 = EDGE_LOOP ( 'NONE', ( #179 ) ) ;
#140 = CARTESIAN_POINT ( 'NONE',  ( 2.758270257686075477E-13, 2.299999999999992273, 79.00000000000000000 ) ) ;
#141 = VERTEX_POINT ( 'NONE', #237 ) ;
#142 = DIRECTION ( 'NONE',  ( -3.491481338843133355E-15, 1.224646799147353207E-16, -1.000000000000000000 ) ) ;
#143 = FACE_OUTER_BOUND ( 'NONE', #139, .T. ) ;
#144 = PERSON_AND_ORGANIZATION ( #138, #235 ) ;
#145 = DIRECTION ( 'NONE',  ( 0.0000000000000000000, -1.000000000000000000, 0.0000000000000000000 ) ) ;
#146 = EDGE_LOOP ( 'NONE', ( #232 ) ) ;
#147 = CIRCLE ( 'NONE', #63, 1.650000000000003908 ) ;
#148 = FACE_BOUND ( 'NONE', #159, .T. ) ;
#149 = APPROVAL ( #218, 'UNSPECIFIED' ) ;
#150 = DIRECTION ( 'NONE',  ( -5.135813185032641787E-31, -1.000000000000000000, -1.445602896647342861E-16 ) ) ;
#151 = DIRECTION ( 'NONE',  ( -3.491481338843133355E-15, 1.224646799147353207E-16, -1.000000000000000000 ) ) ;
#152 = AXIS2_PLACEMENT_3D ( 'NONE', #101, #126, #104 ) ;
#153 = LOCAL_TIME ( 14, 56, 56.00000000000000000, #10 ) ;
#154 = EDGE_LOOP ( 'NONE', ( #208 ) ) ;
#155 = LOCAL_TIME ( 14, 56, 56.00000000000000000, #61 ) ;
#156 = CARTESIAN_POINT ( 'NONE',  ( 2.758270257686075477E-13, -9.674709713264090904E-15, 79.00000000000000000 ) ) ;
#157 = VERTEX_POINT ( 'NONE', #140 ) ;
#158 = ORIENTED_EDGE ( 'NONE', *, *, #30, .F. ) ;
#159 = EDGE_LOOP ( 'NONE', ( #87 ) ) ;
#160 = CARTESIAN_POINT ( 'NONE',  ( 7.506684878512736083E-14, -9.303425808791497196E-15, 21.50000000000000000 ) ) ;
#161 = CARTESIAN_POINT ( 'NONE',  ( 8.658873720330970721E-14, 1.649999999999997247, 24.80000000000000071 ) ) ;
#162 = CC_DESIGN_PERSON_AND_ORGANIZATION_ASSIGNMENT ( #144, #169, ( #191 ) ) ;
#163 = CYLINDRICAL_SURFACE ( 'NONE', #12, 1.650000000000003908 ) ;
#164 = AXIS2_PLACEMENT_3D ( 'NONE', #62, #206, #150 ) ;
#165 = VERTEX_POINT ( 'NONE', #259 ) ;
#166 = FACE_OUTER_BOUND ( 'NONE', #176, .T. ) ;
#167 = CIRCLE ( 'NONE', #230, 3.000000000000001332 ) ;
#168 = APPROVAL_PERSON_ORGANIZATION ( #116, #107, #98 ) ;
#169 = PERSON_AND_ORGANIZATION_ROLE ( 'design_supplier' ) ;
#170 = ADVANCED_FACE ( 'NONE', ( #85, #166 ), #110, .F. ) ;
#171 = CARTESIAN_POINT ( 'NONE',  ( 2.733829888314172723E-13, -9.588984437323771882E-15, 78.29999999999998295 ) ) ;
#172 = ORIENTED_EDGE ( 'NONE', *, *, #35, .T. ) ;
#173 = APPLICATION_CONTEXT ( 'configuration controlled 3d designs of mechanical parts and assemblies' ) ;
#174 = ADVANCED_FACE ( 'NONE', ( #72, #143 ), #163, .T. ) ;
#175 = CARTESIAN_POINT ( 'NONE',  ( 7.506684878512736083E-14, -1.650000000000013234, 21.50000000000000000 ) ) ;
#176 = EDGE_LOOP ( 'NONE', ( #134 ) ) ;
#177 = CALENDAR_DATE ( 2021, 13, 10 ) ;
#178 = ADVANCED_FACE ( 'NONE', ( #11 ), #70, .F. ) ;
#179 = ORIENTED_EDGE ( 'NONE', *, *, #35, .F. ) ;
#180 = CARTESIAN_POINT ( 'NONE',  ( 7.506684878512736083E-14, -1.650000000000013234, 21.50000000000000000 ) ) ;
#181 = CARTESIAN_POINT ( 'NONE',  ( 8.658873720330970721E-14, -1.073139349107112203E-14, 24.80000000000000071 ) ) ;
#182 = CARTESIAN_POINT ( 'NONE',  ( 0.0000000000000000000, 0.0000000000000000000, 0.0000000000000000000 ) ) ;
#183 = PRODUCT ( '960150', '960150', '', ( #71 ) ) ;
#184 =( LENGTH_UNIT ( ) NAMED_UNIT ( * ) SI_UNIT ( .MILLI., .METRE. ) );
#185 = DIRECTION ( 'NONE',  ( -3.491481338843133355E-15, 1.224646799147353207E-16, -1.000000000000000000 ) ) ;
#186 = PERSON_AND_ORGANIZATION_ROLE ( 'design_owner' ) ;
#187 = CLOSED_SHELL ( 'NONE', ( #203, #174, #109 ) ) ;
#188 = LOCAL_TIME ( 14, 56, 56.00000000000000000, #86 ) ;
#189 = FACE_OUTER_BOUND ( 'NONE', #95, .T. ) ;
#190 = APPROVAL_STATUS ( 'not_yet_approved' ) ;
#191 = PRODUCT_DEFINITION_FORMATION_WITH_SPECIFIED_SOURCE ( 'ANY', '', #183, .NOT_KNOWN. ) ;
#192 = PERSON_AND_ORGANIZATION ( #138, #235 ) ;
#193 = AXIS2_PLACEMENT_3D ( 'NONE', #181, #219, #99 ) ;
#194 = APPROVAL_DATE_TIME ( #223, #149 ) ;
#195 = DIRECTION ( 'NONE',  ( -3.491481338843133355E-15, 4.327174794786742882E-16, -1.000000000000000000 ) ) ;
#196 = CARTESIAN_POINT ( 'NONE',  ( 2.733829888314172723E-13, 2.999999999999992006, 78.29999999999998295 ) ) ;
#197 = LOCAL_TIME ( 14, 56, 56.00000000000000000, #2 ) ;
#198 = MANIFOLD_SOLID_BREP ( 'Corps-Déplacer/Copier1[2]', #187 ) ;
#199 = CALENDAR_DATE ( 2021, 13, 10 ) ;
#200 = DIRECTION ( 'NONE',  ( 0.0000000000000000000, 1.000000000000000000, 0.0000000000000000000 ) ) ;
#201 = CALENDAR_DATE ( 2021, 13, 10 ) ;
#202 = CARTESIAN_POINT ( 'NONE',  ( 0.0000000000000000000, 0.0000000000000000000, 0.0000000000000000000 ) ) ;
#203 = ADVANCED_FACE ( 'NONE', ( #260 ), #18, .T. ) ;
#204 = EDGE_CURVE ( 'NONE', #241, #241, #209, .T. ) ;
#205 = APPROVAL_STATUS ( 'not_yet_approved' ) ;
#206 = DIRECTION ( 'NONE',  ( 3.491481338843133355E-15, -1.224646799147353207E-16, 1.000000000000000000 ) ) ;
#207 = CARTESIAN_POINT ( 'NONE',  ( 8.833447787273126758E-14, -1.094775223081045918E-14, 25.30000000000000071 ) ) ;
#208 = ORIENTED_EDGE ( 'NONE', *, *, #248, .F. ) ;
#209 = CIRCLE ( 'NONE', #83, 2.999999999999998224 ) ;
#210 = DATE_TIME_ROLE ( 'classification_date' ) ;
#211 = EDGE_LOOP ( 'NONE', ( #238 ) ) ;
#212 = ORIENTED_EDGE ( 'NONE', *, *, #49, .F. ) ;
#213 = VERTEX_POINT ( 'NONE', #175 ) ;
#214 = DESIGN_CONTEXT ( 'detailed design', #173, 'design' ) ;
#215 = DIRECTION ( 'NONE',  ( 4.275831445896958607E-31, 1.000000000000000000, 1.224646799147353207E-16 ) ) ;
#216 = AXIS2_PLACEMENT_3D ( 'NONE', #82, #103, #145 ) ;
#217 = AXIS2_PLACEMENT_3D ( 'NONE', #36, #117, #54 ) ;
#218 = APPROVAL_STATUS ( 'not_yet_approved' ) ;
#219 = DIRECTION ( 'NONE',  ( -3.491481338843133355E-15, 4.327174794786742882E-16, -1.000000000000000000 ) ) ;
#220 = ADVANCED_FACE ( 'NONE', ( #189, #148 ), #38, .T. ) ;
#221 = CC_DESIGN_PERSON_AND_ORGANIZATION_ASSIGNMENT ( #100, #97, ( #3 ) ) ;
#222 = CC_DESIGN_APPROVAL ( #261, ( #5 ) ) ;
#223 = DATE_AND_TIME ( #201, #153 ) ;
#224 = DATE_AND_TIME ( #199, #197 ) ;
#225 = FACE_OUTER_BOUND ( 'NONE', #25, .T. ) ;
#226 = AXIS2_PLACEMENT_3D ( 'NONE', #207, #60, #81 ) ;
#227 = CARTESIAN_POINT ( 'NONE',  ( 2.758270257686075477E-13, -9.674709713264090904E-15, 79.00000000000000000 ) ) ;
#228 = DIRECTION ( 'NONE',  ( 0.0000000000000000000, 1.000000000000000000, 0.0000000000000000000 ) ) ;
#229 = CARTESIAN_POINT ( 'NONE',  ( 7.506684878512736083E-14, 2.249639673992779022E-32, 21.50000000000000000 ) ) ;
#230 = AXIS2_PLACEMENT_3D ( 'NONE', #171, #151, #228 ) ;
#231 = CC_DESIGN_SECURITY_CLASSIFICATION ( #5, ( #191 ) ) ;
#232 = ORIENTED_EDGE ( 'NONE', *, *, #30, .T. ) ;
#233 = CC_DESIGN_PERSON_AND_ORGANIZATION_ASSIGNMENT ( #22, #186, ( #183 ) ) ;
#234 = EDGE_CURVE ( 'NONE', #213, #213, #127, .T. ) ;
#235 = ORGANIZATION ( 'UNSPECIFIED', 'UNSPECIFIED', '' ) ;
#236 = AXIS2_PLACEMENT_3D ( 'NONE', #156, #51, #111 ) ;
#237 = CARTESIAN_POINT ( 'NONE',  ( 2.096812213377467185E-15, -1.650000000000003908, 0.6005508865392430451 ) ) ;
#238 = ORIENTED_EDGE ( 'NONE', *, *, #204, .T. ) ;
#239 = COORDINATED_UNIVERSAL_TIME_OFFSET ( 1, 0, .AHEAD. ) ;
#240 = CARTESIAN_POINT ( 'NONE',  ( 2.758270257686075477E-13, 1.724723750061123112E-32, 79.00000000000000000 ) ) ;
#241 = VERTEX_POINT ( 'NONE', #78 ) ;
#242 = ADVANCED_BREP_SHAPE_REPRESENTATION ( '960150', ( #14, #198, #217 ), #56 ) ;
#243 = FACE_OUTER_BOUND ( 'NONE', #47, .T. ) ;
#244 = APPLICATION_PROTOCOL_DEFINITION ( 'international standard', 'config_control_design', 1994, #93 ) ;
#245 = ADVANCED_FACE ( 'NONE', ( #254 ), #31, .F. ) ;
#246 = AXIS2_PLACEMENT_3D ( 'NONE', #227, #255, #200 ) ;
#247 = SECURITY_CLASSIFICATION_LEVEL ( 'unclassified' ) ;
#248 = EDGE_CURVE ( 'NONE', #157, #157, #68, .T. ) ;
#249 = APPROVAL_DATE_TIME ( #27, #261 ) ;
#250 = DIRECTION ( 'NONE',  ( -4.275831445896958607E-31, -1.000000000000000000, -1.224646799147353207E-16 ) ) ;
#251 = CIRCLE ( 'NONE', #226, 1.783974596215569086 ) ;
#252 = AXIS2_PLACEMENT_3D ( 'NONE', #202, #91, #65 ) ;
#253 = ADVANCED_FACE ( 'NONE', ( #131, #257 ), #64, .T. ) ;
#254 = FACE_OUTER_BOUND ( 'NONE', #48, .T. ) ;
#255 = DIRECTION ( 'NONE',  ( -3.491481338843133355E-15, 1.224646799147353207E-16, -1.000000000000000000 ) ) ;
#256 = ORIENTED_EDGE ( 'NONE', *, *, #84, .T. ) ;
#257 = FACE_OUTER_BOUND ( 'NONE', #128, .T. ) ;
#258 = DIRECTION ( 'NONE',  ( 1.510825004591027679E-30, 1.000000000000000000, 4.327174794786742882E-16 ) ) ;
#259 = CARTESIAN_POINT ( 'NONE',  ( 8.833447787273126758E-14, 1.783974596215558206, 25.30000000000000071 ) ) ;
#260 = FACE_OUTER_BOUND ( 'NONE', #43, .T. ) ;
#261 = APPROVAL ( #190, 'UNSPECIFIED' ) ;
#262 = ADVANCED_FACE ( 'NONE', ( #53, #34 ), #6, .T. ) ;
#263 = VERTEX_POINT ( 'NONE', #180 ) ;
ENDSEC;
END-ISO-10303-21;
