ISO-10303-21;
HEADER;
FILE_DESCRIPTION (( 'STEP AP203' ),
    '1' );
FILE_NAME ('960149.step',
    '2021-10-13T12:56:55',
    ( '' ),
    ( '' ),
    'SwSTEP 2.0',
    'SolidWorks 2019',
    '' );
FILE_SCHEMA (( 'CONFIG_CONTROL_DESIGN' ));
ENDSEC;

DATA;
#1 = CARTESIAN_POINT ( 'NONE',  ( 9.319748403894336972E-14, -3.000000000000010214, 26.69282032302752938 ) ) ;
#2 = AXIS2_PLACEMENT_3D ( 'NONE', #81, #131, #160 ) ;
#3 = PERSON_AND_ORGANIZATION ( #7, #146 ) ;
#4 = PERSON_AND_ORGANIZATION_ROLE ( 'classification_officer' ) ;
#5 = PRODUCT_RELATED_PRODUCT_CATEGORY ( 'detail', '', ( #209 ) ) ;
#6 = ORIENTED_EDGE ( 'NONE', *, *, #261, .F. ) ;
#7 = PERSON ( 'UNSPECIFIED', 'UNSPECIFIED', 'UNSPECIFIED', ('UNSPECIFIED'), ('UNSPECIFIED'), ('UNSPECIFIED') ) ;
#8 = LOCAL_TIME ( 14, 56, 55.00000000000000000, #229 ) ;
#9 = CARTESIAN_POINT ( 'NONE',  ( 7.262281184793717379E-14, 2.249639673992779022E-32, 20.80000000000000071 ) ) ;
#10 = DIRECTION ( 'NONE',  ( 0.0000000000000000000, 1.000000000000000000, 0.0000000000000000000 ) ) ;
#11 = EDGE_LOOP ( 'NONE', ( #254 ) ) ;
#12 = CIRCLE ( 'NONE', #103, 3.000000000000001332 ) ;
#13 = ADVANCED_FACE ( 'NONE', ( #251, #104 ), #147, .T. ) ;
#14 = FACE_OUTER_BOUND ( 'NONE', #51, .T. ) ;
#15 = VERTEX_POINT ( 'NONE', #139 ) ;
#16 = VERTEX_POINT ( 'NONE', #96 ) ;
#17 = VERTEX_POINT ( 'NONE', #206 ) ;
#18 = ORIENTED_EDGE ( 'NONE', *, *, #65, .F. ) ;
#19 = CARTESIAN_POINT ( 'NONE',  ( 2.033272449335725827E-15, -1.600000000000003864, 0.5823523748259327171 ) ) ;
#20 = EDGE_LOOP ( 'NONE', ( #215 ) ) ;
#21 = MECHANICAL_CONTEXT ( 'NONE', #191, 'mechanical' ) ;
#22 = CIRCLE ( 'NONE', #244, 1.600000000000003864 ) ;
#23 = CALENDAR_DATE ( 2021, 13, 10 ) ;
#24 = PERSON_AND_ORGANIZATION ( #7, #146 ) ;
#25 = CIRCLE ( 'NONE', #192, 2.300000000000001599 ) ;
#26 = APPROVAL_PERSON_ORGANIZATION ( #169, #155, #66 ) ;
#27 = CARTESIAN_POINT ( 'NONE',  ( 7.262281184793717379E-14, -9.000523573156424879E-15, 20.80000000000000071 ) ) ;
#28 = DIRECTION ( 'NONE',  ( 3.491481338843133355E-15, -1.224646799147353207E-16, 1.000000000000000000 ) ) ;
#29 = EDGE_LOOP ( 'NONE', ( #90 ) ) ;
#30 = LOCAL_TIME ( 14, 56, 55.00000000000000000, #62 ) ;
#31 = DIRECTION ( 'NONE',  ( -5.135813185032641787E-31, -1.000000000000000000, -1.445602896647342861E-16 ) ) ;
#32 = CARTESIAN_POINT ( 'NONE',  ( 9.319748403894336972E-14, -1.155044993035760463E-14, 26.69282032302752938 ) ) ;
#33 = FACE_OUTER_BOUND ( 'NONE', #239, .T. ) ;
#34 = APPROVAL ( #247, 'UNSPECIFIED' ) ;
#35 = CC_DESIGN_SECURITY_CLASSIFICATION ( #93, ( #235 ) ) ;
#36 = FACE_OUTER_BOUND ( 'NONE', #238, .T. ) ;
#37 = DIRECTION ( 'NONE',  ( -4.814824860968078247E-31, -1.000000000000000000, -1.355252715606877338E-16 ) ) ;
#38 = FACE_OUTER_BOUND ( 'NONE', #121, .T. ) ;
#39 = CLOSED_SHELL ( 'NONE', ( #13, #193, #233, #158, #212, #184, #231 ) ) ;
#40 =( NAMED_UNIT ( * ) SI_UNIT ( $, .STERADIAN. ) SOLID_ANGLE_UNIT ( ) );
#41 = APPROVAL_ROLE ( '' ) ;
#42 = PERSON_AND_ORGANIZATION ( #7, #146 ) ;
#43 = AXIS2_PLACEMENT_3D ( 'NONE', #154, #135, #241 ) ;
#44 = APPROVAL_DATE_TIME ( #144, #34 ) ;
#45 = DATE_AND_TIME ( #101, #199 ) ;
#46 =( GEOMETRIC_REPRESENTATION_CONTEXT ( 3 ) GLOBAL_UNCERTAINTY_ASSIGNED_CONTEXT ( ( #178 ) ) GLOBAL_UNIT_ASSIGNED_CONTEXT ( ( #159, #56, #40 ) ) REPRESENTATION_CONTEXT ( 'NONE', 'WORKASPACE' ) );
#47 = MANIFOLD_SOLID_BREP ( 'Corps-Déplacer/Copier1[2]', #54 ) ;
#48 = EDGE_LOOP ( 'NONE', ( #201 ) ) ;
#49 = CYLINDRICAL_SURFACE ( 'NONE', #107, 1.600000000000003864 ) ;
#50 = CARTESIAN_POINT ( 'NONE',  ( 3.812385842504467288E-15, -1.337204947137065176E-16, 1.091910702798618571 ) ) ;
#51 = EDGE_LOOP ( 'NONE', ( #74 ) ) ;
#52 = FACE_OUTER_BOUND ( 'NONE', #11, .T. ) ;
#53 = CARTESIAN_POINT ( 'NONE',  ( 0.0000000000000000000, 0.0000000000000000000, 0.0000000000000000000 ) ) ;
#54 = CLOSED_SHELL ( 'NONE', ( #125, #230, #89 ) ) ;
#55 = AXIS2_PLACEMENT_3D ( 'NONE', #263, #180, #181 ) ;
#56 =( NAMED_UNIT ( * ) PLANE_ANGLE_UNIT ( ) SI_UNIT ( $, .RADIAN. ) );
#57 = AXIS2_PLACEMENT_3D ( 'NONE', #95, #207, #37 ) ;
#58 = DIRECTION ( 'NONE',  ( -3.491481338843133355E-15, 4.327174794786742882E-16, -1.000000000000000000 ) ) ;
#59 = APPROVAL_DATE_TIME ( #118, #105 ) ;
#60 = DATE_TIME_ROLE ( 'creation_date' ) ;
#61 = APPROVAL_STATUS ( 'not_yet_approved' ) ;
#62 = COORDINATED_UNIVERSAL_TIME_OFFSET ( 1, 0, .AHEAD. ) ;
#63 = LOCAL_TIME ( 14, 56, 55.00000000000000000, #248 ) ;
#64 = SHAPE_DEFINITION_REPRESENTATION ( #164, #256 ) ;
#65 = EDGE_CURVE ( 'NONE', #243, #243, #137, .T. ) ;
#66 = APPROVAL_ROLE ( '' ) ;
#67 = AXIS2_PLACEMENT_3D ( 'NONE', #50, #128, #31 ) ;
#68 = CARTESIAN_POINT ( 'NONE',  ( 8.554129280165677352E-14, -1.060157824722752006E-14, 24.50000000000000000 ) ) ;
#69 = DIRECTION ( 'NONE',  ( 0.0000000000000000000, -1.000000000000000000, 0.0000000000000000000 ) ) ;
#70 = ORIENTED_EDGE ( 'NONE', *, *, #112, .F. ) ;
#71 = AXIS2_PLACEMENT_3D ( 'NONE', #203, #223, #242 ) ;
#72 = DESIGN_CONTEXT ( 'detailed design', #80, 'design' ) ;
#73 = FACE_OUTER_BOUND ( 'NONE', #123, .T. ) ;
#74 = ORIENTED_EDGE ( 'NONE', *, *, #129, .F. ) ;
#75 = CARTESIAN_POINT ( 'NONE',  ( 0.0000000000000000000, 0.0000000000000000000, 0.0000000000000000000 ) ) ;
#76 = CARTESIAN_POINT ( 'NONE',  ( 0.0000000000000000000, 0.0000000000000000000, 0.0000000000000000000 ) ) ;
#77 = AXIS2_PLACEMENT_3D ( 'NONE', #218, #108, #69 ) ;
#78 = ORIENTED_EDGE ( 'NONE', *, *, #65, .T. ) ;
#79 = FACE_BOUND ( 'NONE', #91, .T. ) ;
#80 = APPLICATION_CONTEXT ( 'configuration controlled 3d designs of mechanical parts and assemblies' ) ;
#81 = CARTESIAN_POINT ( 'NONE',  ( 9.622119557522087405E-14, -1.192519426024771499E-14, 27.55884572681198463 ) ) ;
#82 = APPROVAL_STATUS ( 'not_yet_approved' ) ;
#83 = COORDINATED_UNIVERSAL_TIME_OFFSET ( 1, 0, .AHEAD. ) ;
#84 = AXIS2_PLACEMENT_3D ( 'NONE', #76, #58, #114 ) ;
#85 = DATE_AND_TIME ( #168, #63 ) ;
#86 = CARTESIAN_POINT ( 'NONE',  ( 8.379555213223520053E-14, -1.038521950748818292E-14, 24.00000000000000000 ) ) ;
#87 = APPROVAL_PERSON_ORGANIZATION ( #3, #105, #227 ) ;
#88 = DIRECTION ( 'NONE',  ( -3.491481338843133355E-15, 1.224646799147353207E-16, -1.000000000000000000 ) ) ;
#89 = ADVANCED_FACE ( 'NONE', ( #14 ), #124, .T. ) ;
#90 = ORIENTED_EDGE ( 'NONE', *, *, #136, .T. ) ;
#91 = EDGE_LOOP ( 'NONE', ( #200 ) ) ;
#92 = CARTESIAN_POINT ( 'NONE',  ( 2.733829888314172723E-13, -9.588984437323771882E-15, 78.29999999999998295 ) ) ;
#93 = SECURITY_CLASSIFICATION ( '', '', #226 ) ;
#94 = DIRECTION ( 'NONE',  ( 0.0000000000000000000, 1.000000000000000000, 0.0000000000000000000 ) ) ;
#95 = CARTESIAN_POINT ( 'NONE',  ( 2.033272449335726616E-15, -7.131759718064385652E-17, 0.5823523748259329391 ) ) ;
#96 = CARTESIAN_POINT ( 'NONE',  ( 2.733829888314172723E-13, 2.999999999999992006, 78.29999999999998295 ) ) ;
#97 = CYLINDRICAL_SURFACE ( 'NONE', #84, 1.600000000000003864 ) ;
#98 = CIRCLE ( 'NONE', #57, 1.600000000000003864 ) ;
#99 = DIRECTION ( 'NONE',  ( 1.000000000000000000, 0.0000000000000000000, 0.0000000000000000000 ) ) ;
#100 = CALENDAR_DATE ( 2021, 13, 10 ) ;
#101 = CALENDAR_DATE ( 2021, 13, 10 ) ;
#102 = AXIS2_PLACEMENT_3D ( 'NONE', #75, #126, #253 ) ;
#103 = AXIS2_PLACEMENT_3D ( 'NONE', #92, #217, #94 ) ;
#104 = FACE_OUTER_BOUND ( 'NONE', #48, .T. ) ;
#105 = APPROVAL ( #82, 'UNSPECIFIED' ) ;
#106 = EDGE_LOOP ( 'NONE', ( #145 ) ) ;
#107 = AXIS2_PLACEMENT_3D ( 'NONE', #198, #232, #127 ) ;
#108 = DIRECTION ( 'NONE',  ( -3.491481338843133355E-15, 1.224646799147353207E-16, -1.000000000000000000 ) ) ;
#109 = FACE_OUTER_BOUND ( 'NONE', #130, .T. ) ;
#110 = CARTESIAN_POINT ( 'NONE',  ( 8.379555213223520053E-14, -1.040834085586084257E-14, 24.00000000000000000 ) ) ;
#111 = CONICAL_SURFACE ( 'NONE', #2, 3.500000000000008882, 0.5235987755982998149 ) ;
#112 = EDGE_CURVE ( 'NONE', #113, #113, #25, .T. ) ;
#113 = VERTEX_POINT ( 'NONE', #202 ) ;
#114 = DIRECTION ( 'NONE',  ( 1.510825004591027679E-30, 1.000000000000000000, 4.327174794786742882E-16 ) ) ;
#115 = APPLICATION_PROTOCOL_DEFINITION ( 'international standard', 'config_control_design', 1994, #191 ) ;
#116 = PERSON_AND_ORGANIZATION ( #7, #146 ) ;
#117 = AXIS2_PLACEMENT_3D ( 'NONE', #32, #148, #170 ) ;
#118 = DATE_AND_TIME ( #141, #8 ) ;
#119 = PERSON_AND_ORGANIZATION ( #7, #146 ) ;
#120 = APPROVAL_DATE_TIME ( #45, #155 ) ;
#121 = EDGE_LOOP ( 'NONE', ( #153 ) ) ;
#122 = CC_DESIGN_DATE_AND_TIME_ASSIGNMENT ( #246, #60, ( #252 ) ) ;
#123 = EDGE_LOOP ( 'NONE', ( #151 ) ) ;
#124 = PLANE ( 'NONE',  #174 ) ;
#125 = ADVANCED_FACE ( 'NONE', ( #52 ), #132, .T. ) ;
#126 = DIRECTION ( 'NONE',  ( -3.491481338843133355E-15, 1.224646799147353207E-16, -1.000000000000000000 ) ) ;
#127 = DIRECTION ( 'NONE',  ( 1.510825004591027679E-30, 1.000000000000000000, 4.327174794786742882E-16 ) ) ;
#128 = DIRECTION ( 'NONE',  ( 3.491481338843133355E-15, -1.224646799147353207E-16, 1.000000000000000000 ) ) ;
#129 = EDGE_CURVE ( 'NONE', #17, #17, #224, .T. ) ;
#130 = EDGE_LOOP ( 'NONE', ( #18 ) ) ;
#131 = DIRECTION ( 'NONE',  ( 3.491481338843133355E-15, -4.327174794786742882E-16, 1.000000000000000000 ) ) ;
#132 = CONICAL_SURFACE ( 'NONE', #67, 2.999999999999992450, 1.221730476396026610 ) ;
#133 = CARTESIAN_POINT ( 'NONE',  ( 8.554129280165677352E-14, 1.733974596215559272, 24.50000000000000000 ) ) ;
#134 = EDGE_CURVE ( 'NONE', #16, #16, #12, .T. ) ;
#135 = DIRECTION ( 'NONE',  ( -3.491481338843133355E-15, 1.224646799147353207E-16, -1.000000000000000000 ) ) ;
#136 = EDGE_CURVE ( 'NONE', #260, #260, #240, .T. ) ;
#137 = CIRCLE ( 'NONE', #182, 1.600000000000007416 ) ;
#138 = CC_DESIGN_APPROVAL ( #105, ( #252 ) ) ;
#139 = CARTESIAN_POINT ( 'NONE',  ( 7.262281184793717379E-14, -1.600000000000012967, 20.80000000000000071 ) ) ;
#140 = APPLICATION_PROTOCOL_DEFINITION ( 'international standard', 'config_control_design', 1994, #80 ) ;
#141 = CALENDAR_DATE ( 2021, 13, 10 ) ;
#142 = COORDINATED_UNIVERSAL_TIME_OFFSET ( 1, 0, .AHEAD. ) ;
#143 = APPROVAL_PERSON_ORGANIZATION ( #163, #34, #41 ) ;
#144 = DATE_AND_TIME ( #100, #30 ) ;
#145 = ORIENTED_EDGE ( 'NONE', *, *, #179, .F. ) ;
#146 = ORGANIZATION ( 'UNSPECIFIED', 'UNSPECIFIED', '' ) ;
#147 = CYLINDRICAL_SURFACE ( 'NONE', #102, 2.999999999999998224 ) ;
#148 = DIRECTION ( 'NONE',  ( 3.491481338843133355E-15, -4.327174794786742882E-16, 1.000000000000000000 ) ) ;
#149 = DIRECTION ( 'NONE',  ( -4.275831445896958607E-31, -1.000000000000000000, -1.224646799147353207E-16 ) ) ;
#150 = EDGE_LOOP ( 'NONE', ( #78 ) ) ;
#151 = ORIENTED_EDGE ( 'NONE', *, *, #134, .F. ) ;
#152 = EDGE_CURVE ( 'NONE', #157, #157, #205, .T. ) ;
#153 = ORIENTED_EDGE ( 'NONE', *, *, #129, .T. ) ;
#154 = CARTESIAN_POINT ( 'NONE',  ( 2.758270257686075477E-13, 1.724723750061123112E-32, 79.00000000000000000 ) ) ;
#155 = APPROVAL ( #61, 'UNSPECIFIED' ) ;
#156 = TOROIDAL_SURFACE ( 'NONE', #195, 2.600000000000006750, 0.9999999999999988898 ) ;
#157 = VERTEX_POINT ( 'NONE', #133 ) ;
#158 = ADVANCED_FACE ( 'NONE', ( #234, #197 ), #49, .T. ) ;
#159 =( LENGTH_UNIT ( ) NAMED_UNIT ( * ) SI_UNIT ( .MILLI., .METRE. ) );
#160 = DIRECTION ( 'NONE',  ( 0.0000000000000000000, -1.000000000000000000, 0.0000000000000000000 ) ) ;
#161 = CARTESIAN_POINT ( 'NONE',  ( 8.379555213223520053E-14, 1.599999999999996980, 24.00000000000000000 ) ) ;
#162 = PERSON_AND_ORGANIZATION ( #7, #146 ) ;
#163 = PERSON_AND_ORGANIZATION ( #7, #146 ) ;
#164 = PRODUCT_DEFINITION_SHAPE ( 'NONE', 'NONE',  #252 ) ;
#165 = CC_DESIGN_PERSON_AND_ORGANIZATION_ASSIGNMENT ( #42, #189, ( #209 ) ) ;
#166 = DATE_TIME_ROLE ( 'classification_date' ) ;
#167 = CC_DESIGN_DATE_AND_TIME_ASSIGNMENT ( #85, #166, ( #93 ) ) ;
#168 = CALENDAR_DATE ( 2021, 13, 10 ) ;
#169 = PERSON_AND_ORGANIZATION ( #7, #146 ) ;
#170 = DIRECTION ( 'NONE',  ( 0.0000000000000000000, -1.000000000000000000, 0.0000000000000000000 ) ) ;
#171 = CC_DESIGN_PERSON_AND_ORGANIZATION_ASSIGNMENT ( #24, #245, ( #235 ) ) ;
#172 = DIRECTION ( 'NONE',  ( 0.0000000000000000000, 1.000000000000000000, 0.0000000000000000000 ) ) ;
#173 = DIRECTION ( 'NONE',  ( 0.0000000000000000000, -1.000000000000000000, 0.0000000000000000000 ) ) ;
#174 = AXIS2_PLACEMENT_3D ( 'NONE', #9, #28, #149 ) ;
#175 = AXIS2_PLACEMENT_3D ( 'NONE', #68, #214, #10 ) ;
#176 = CC_DESIGN_PERSON_AND_ORGANIZATION_ASSIGNMENT ( #162, #190, ( #252 ) ) ;
#177 = DIRECTION ( 'NONE',  ( -3.491481338843133355E-15, 4.327174794786742882E-16, -1.000000000000000000 ) ) ;
#178 = UNCERTAINTY_MEASURE_WITH_UNIT (LENGTH_MEASURE( 1.000000000000000082E-05 ), #159, 'distance_accuracy_value', 'NONE');
#179 = EDGE_CURVE ( 'NONE', #15, #15, #22, .T. ) ;
#180 = DIRECTION ( 'NONE',  ( 3.491481338843133355E-15, -1.224646799147353207E-16, 1.000000000000000000 ) ) ;
#181 = DIRECTION ( 'NONE',  ( -4.275831445896958607E-31, -1.000000000000000000, -1.224646799147353207E-16 ) ) ;
#182 = AXIS2_PLACEMENT_3D ( 'NONE', #86, #194, #255 ) ;
#183 = CC_DESIGN_APPROVAL ( #34, ( #235 ) ) ;
#184 = ADVANCED_FACE ( 'NONE', ( #109, #33 ), #156, .F. ) ;
#185 = DIRECTION ( 'NONE',  ( 1.510825004591027855E-30, 1.000000000000000000, 4.327174794786742882E-16 ) ) ;
#186 = PLANE ( 'NONE',  #55 ) ;
#187 = ORIENTED_EDGE ( 'NONE', *, *, #136, .F. ) ;
#188 = PLANE ( 'NONE',  #43 ) ;
#189 = PERSON_AND_ORGANIZATION_ROLE ( 'design_owner' ) ;
#190 = PERSON_AND_ORGANIZATION_ROLE ( 'creator' ) ;
#191 = APPLICATION_CONTEXT ( 'configuration controlled 3d designs of mechanical parts and assemblies' ) ;
#192 = AXIS2_PLACEMENT_3D ( 'NONE', #236, #88, #172 ) ;
#193 = ADVANCED_FACE ( 'NONE', ( #73, #79 ), #259, .T. ) ;
#194 = DIRECTION ( 'NONE',  ( -3.491481338843133355E-15, 4.327174794786742882E-16, -1.000000000000000000 ) ) ;
#195 = AXIS2_PLACEMENT_3D ( 'NONE', #110, #177, #185 ) ;
#196 = ORIENTED_EDGE ( 'NONE', *, *, #179, .T. ) ;
#197 = FACE_OUTER_BOUND ( 'NONE', #106, .T. ) ;
#198 = CARTESIAN_POINT ( 'NONE',  ( 0.0000000000000000000, 0.0000000000000000000, 0.0000000000000000000 ) ) ;
#199 = LOCAL_TIME ( 14, 56, 55.00000000000000000, #142 ) ;
#200 = ORIENTED_EDGE ( 'NONE', *, *, #112, .T. ) ;
#201 = ORIENTED_EDGE ( 'NONE', *, *, #134, .T. ) ;
#202 = CARTESIAN_POINT ( 'NONE',  ( 2.758270257686075477E-13, 2.299999999999992273, 79.00000000000000000 ) ) ;
#203 = CARTESIAN_POINT ( 'NONE',  ( 2.758270257686075477E-13, -9.674709713264090904E-15, 79.00000000000000000 ) ) ;
#204 = FACE_OUTER_BOUND ( 'NONE', #257, .T. ) ;
#205 = CIRCLE ( 'NONE', #175, 1.733974596215569930 ) ;
#206 = CARTESIAN_POINT ( 'NONE',  ( 7.262281184793717379E-14, -1.600000000000012967, 20.80000000000000071 ) ) ;
#207 = DIRECTION ( 'NONE',  ( -3.491481338843133355E-15, 1.224646799147353207E-16, -1.000000000000000000 ) ) ;
#208 = CC_DESIGN_PERSON_AND_ORGANIZATION_ASSIGNMENT ( #116, #4, ( #93 ) ) ;
#209 = PRODUCT ( '960149', '960149', '', ( #21 ) ) ;
#210 = DIRECTION ( 'NONE',  ( 0.0000000000000000000, 0.0000000000000000000, 1.000000000000000000 ) ) ;
#211 = PERSON_AND_ORGANIZATION_ROLE ( 'creator' ) ;
#212 = ADVANCED_FACE ( 'NONE', ( #221, #36 ), #111, .T. ) ;
#213 = AXIS2_PLACEMENT_3D ( 'NONE', #53, #210, #99 ) ;
#214 = DIRECTION ( 'NONE',  ( -3.491481338843133355E-15, 4.327174794786742882E-16, -1.000000000000000000 ) ) ;
#215 = ORIENTED_EDGE ( 'NONE', *, *, #152, .F. ) ;
#216 = DIRECTION ( 'NONE',  ( -3.491481338843133355E-15, 1.224646799147353207E-16, -1.000000000000000000 ) ) ;
#217 = DIRECTION ( 'NONE',  ( -3.491481338843133355E-15, 1.224646799147353207E-16, -1.000000000000000000 ) ) ;
#218 = CARTESIAN_POINT ( 'NONE',  ( 7.262281184793717379E-14, -9.000523573156424879E-15, 20.80000000000000071 ) ) ;
#219 = EDGE_LOOP ( 'NONE', ( #196 ) ) ;
#220 = CC_DESIGN_APPROVAL ( #155, ( #93 ) ) ;
#221 = FACE_BOUND ( 'NONE', #20, .T. ) ;
#222 = FACE_OUTER_BOUND ( 'NONE', #219, .T. ) ;
#223 = DIRECTION ( 'NONE',  ( -3.491481338843133355E-15, 1.224646799147353207E-16, -1.000000000000000000 ) ) ;
#224 = CIRCLE ( 'NONE', #77, 1.600000000000003864 ) ;
#225 = MANIFOLD_SOLID_BREP ( 'Corps-Déplacer/Copier1[1]', #39 ) ;
#226 = SECURITY_CLASSIFICATION_LEVEL ( 'unclassified' ) ;
#227 = APPROVAL_ROLE ( '' ) ;
#228 = LOCAL_TIME ( 14, 56, 55.00000000000000000, #83 ) ;
#229 = COORDINATED_UNIVERSAL_TIME_OFFSET ( 1, 0, .AHEAD. ) ;
#230 = ADVANCED_FACE ( 'NONE', ( #38, #258 ), #97, .T. ) ;
#231 = ADVANCED_FACE ( 'NONE', ( #222 ), #186, .F. ) ;
#232 = DIRECTION ( 'NONE',  ( -3.491481338843133355E-15, 4.327174794786742882E-16, -1.000000000000000000 ) ) ;
#233 = ADVANCED_FACE ( 'NONE', ( #204 ), #188, .F. ) ;
#234 = FACE_OUTER_BOUND ( 'NONE', #150, .T. ) ;
#235 = PRODUCT_DEFINITION_FORMATION_WITH_SPECIFIED_SOURCE ( 'ANY', '', #209, .NOT_KNOWN. ) ;
#236 = CARTESIAN_POINT ( 'NONE',  ( 2.758270257686075477E-13, -9.674709713264090904E-15, 79.00000000000000000 ) ) ;
#237 = ORIENTED_EDGE ( 'NONE', *, *, #152, .T. ) ;
#238 = EDGE_LOOP ( 'NONE', ( #187 ) ) ;
#239 = EDGE_LOOP ( 'NONE', ( #237 ) ) ;
#240 = CIRCLE ( 'NONE', #117, 2.999999999999998224 ) ;
#241 = DIRECTION ( 'NONE',  ( 4.275831445896958607E-31, 1.000000000000000000, 1.224646799147353207E-16 ) ) ;
#242 = DIRECTION ( 'NONE',  ( 0.0000000000000000000, 1.000000000000000000, 0.0000000000000000000 ) ) ;
#243 = VERTEX_POINT ( 'NONE', #161 ) ;
#244 = AXIS2_PLACEMENT_3D ( 'NONE', #27, #216, #173 ) ;
#245 = PERSON_AND_ORGANIZATION_ROLE ( 'design_supplier' ) ;
#246 = DATE_AND_TIME ( #23, #228 ) ;
#247 = APPROVAL_STATUS ( 'not_yet_approved' ) ;
#248 = COORDINATED_UNIVERSAL_TIME_OFFSET ( 1, 0, .AHEAD. ) ;
#249 = CC_DESIGN_PERSON_AND_ORGANIZATION_ASSIGNMENT ( #119, #211, ( #235 ) ) ;
#250 = EDGE_LOOP ( 'NONE', ( #6 ) ) ;
#251 = FACE_OUTER_BOUND ( 'NONE', #29, .T. ) ;
#252 = PRODUCT_DEFINITION ( 'UNKNOWN', '', #235, #72 ) ;
#253 = DIRECTION ( 'NONE',  ( 4.275831445896958607E-31, 1.000000000000000000, 1.224646799147353454E-16 ) ) ;
#254 = ORIENTED_EDGE ( 'NONE', *, *, #261, .T. ) ;
#255 = DIRECTION ( 'NONE',  ( 0.0000000000000000000, 1.000000000000000000, 0.0000000000000000000 ) ) ;
#256 = ADVANCED_BREP_SHAPE_REPRESENTATION ( '960149', ( #225, #47, #213 ), #46 ) ;
#257 = EDGE_LOOP ( 'NONE', ( #70 ) ) ;
#258 = FACE_OUTER_BOUND ( 'NONE', #250, .T. ) ;
#259 = CONICAL_SURFACE ( 'NONE', #71, 2.300000000000001599, 0.7853981633974337351 ) ;
#260 = VERTEX_POINT ( 'NONE', #1 ) ;
#261 = EDGE_CURVE ( 'NONE', #262, #262, #98, .T. ) ;
#262 = VERTEX_POINT ( 'NONE', #19 ) ;
#263 = CARTESIAN_POINT ( 'NONE',  ( 7.262281184793717379E-14, 2.249639673992779022E-32, 20.80000000000000071 ) ) ;
ENDSEC;
END-ISO-10303-21;
