ISO-10303-21;
HEADER;
FILE_DESCRIPTION (( 'STEP AP203' ),
    '1' );
FILE_NAME ('960148.step',
    '2021-10-13T12:56:55',
    ( '' ),
    ( '' ),
    'SwSTEP 2.0',
    'SolidWorks 2019',
    '' );
FILE_SCHEMA (( 'CONFIG_CONTROL_DESIGN' ));
ENDSEC;

DATA;
#1 = AXIS2_PLACEMENT_3D ( 'NONE', #111, #89, #193 ) ;
#2 = FACE_BOUND ( 'NONE', #25, .T. ) ;
#3 = PRODUCT_DEFINITION_SHAPE ( 'NONE', 'NONE',  #262 ) ;
#4 = CARTESIAN_POINT ( 'NONE',  ( 2.758270257686075477E-13, 2.299999999999992273, 79.00000000000000000 ) ) ;
#5 = COORDINATED_UNIVERSAL_TIME_OFFSET ( 1, 0, .AHEAD. ) ;
#6 = EDGE_LOOP ( 'NONE', ( #24 ) ) ;
#7 = DIRECTION ( 'NONE',  ( 0.0000000000000000000, 1.000000000000000000, 0.0000000000000000000 ) ) ;
#8 = CALENDAR_DATE ( 2021, 13, 10 ) ;
#9 = CALENDAR_DATE ( 2021, 13, 10 ) ;
#10 = CARTESIAN_POINT ( 'NONE',  ( 7.052792304463129378E-14, -8.740893085469220937E-15, 20.19999999999999929 ) ) ;
#11 = AXIS2_PLACEMENT_3D ( 'NONE', #63, #169, #7 ) ;
#12 = CARTESIAN_POINT ( 'NONE',  ( 7.052792304463129378E-14, -1.550000000000012257, 20.19999999999999929 ) ) ;
#13 = CYLINDRICAL_SURFACE ( 'NONE', #156, 2.999999999999998224 ) ;
#14 = DIRECTION ( 'NONE',  ( 3.491481338843133355E-15, -1.224646799147353207E-16, 1.000000000000000000 ) ) ;
#15 = PRODUCT_RELATED_PRODUCT_CATEGORY ( 'detail', '', ( #22 ) ) ;
#16 = ADVANCED_FACE ( 'NONE', ( #2, #231 ), #85, .T. ) ;
#17 = DIRECTION ( 'NONE',  ( 4.275831445896958607E-31, 1.000000000000000000, 1.224646799147353207E-16 ) ) ;
#18 = CARTESIAN_POINT ( 'NONE',  ( 0.0000000000000000000, 0.0000000000000000000, 0.0000000000000000000 ) ) ;
#19 = CC_DESIGN_APPROVAL ( #158, ( #136 ) ) ;
#20 = DIRECTION ( 'NONE',  ( -4.970141791967048626E-31, -1.000000000000000000, -1.398970545142583090E-16 ) ) ;
#21 = DIRECTION ( 'NONE',  ( 0.0000000000000000000, 1.000000000000000000, 0.0000000000000000000 ) ) ;
#22 = PRODUCT ( '960148', '960148', '', ( #133 ) ) ;
#23 = CONICAL_SURFACE ( 'NONE', #48, 2.300000000000001599, 0.7853981633974337351 ) ;
#24 = ORIENTED_EDGE ( 'NONE', *, *, #56, .T. ) ;
#25 = EDGE_LOOP ( 'NONE', ( #166 ) ) ;
#26 = PERSON_AND_ORGANIZATION_ROLE ( 'classification_officer' ) ;
#27 = ORIENTED_EDGE ( 'NONE', *, *, #230, .F. ) ;
#28 = PERSON_AND_ORGANIZATION ( #115, #150 ) ;
#29 =( NAMED_UNIT ( * ) PLANE_ANGLE_UNIT ( ) SI_UNIT ( $, .RADIAN. ) );
#30 = AXIS2_PLACEMENT_3D ( 'NONE', #190, #149, #216 ) ;
#31 = FACE_OUTER_BOUND ( 'NONE', #143, .T. ) ;
#32 =( LENGTH_UNIT ( ) NAMED_UNIT ( * ) SI_UNIT ( .MILLI., .METRE. ) );
#33 = DATE_AND_TIME ( #9, #256 ) ;
#34 = DIRECTION ( 'NONE',  ( 3.491481338843133355E-15, -4.327174794786742882E-16, 1.000000000000000000 ) ) ;
#35 = DIRECTION ( 'NONE',  ( -5.135813185032641787E-31, -1.000000000000000000, -1.445602896647342861E-16 ) ) ;
#36 = APPROVAL_PERSON_ORGANIZATION ( #197, #158, #258 ) ;
#37 = EDGE_CURVE ( 'NONE', #242, #242, #113, .T. ) ;
#38 = DIRECTION ( 'NONE',  ( 4.275831445896958607E-31, 1.000000000000000000, 1.224646799147353454E-16 ) ) ;
#39 = CC_DESIGN_APPROVAL ( #175, ( #262 ) ) ;
#40 = FACE_OUTER_BOUND ( 'NONE', #106, .T. ) ;
#41 = DIRECTION ( 'NONE',  ( 0.0000000000000000000, -1.000000000000000000, 0.0000000000000000000 ) ) ;
#42 = AXIS2_PLACEMENT_3D ( 'NONE', #179, #97, #57 ) ;
#43 = CC_DESIGN_PERSON_AND_ORGANIZATION_ASSIGNMENT ( #28, #92, ( #22 ) ) ;
#44 = LOCAL_TIME ( 14, 56, 55.00000000000000000, #186 ) ;
#45 = EDGE_LOOP ( 'NONE', ( #81 ) ) ;
#46 = APPROVAL_STATUS ( 'not_yet_approved' ) ;
#47 = COORDINATED_UNIVERSAL_TIME_OFFSET ( 1, 0, .AHEAD. ) ;
#48 = AXIS2_PLACEMENT_3D ( 'NONE', #223, #204, #95 ) ;
#49 = PERSON_AND_ORGANIZATION ( #115, #150 ) ;
#50 = SECURITY_CLASSIFICATION_LEVEL ( 'unclassified' ) ;
#51 = CARTESIAN_POINT ( 'NONE',  ( 1.969732685293984469E-15, -1.550000000000003597, 0.5641538631126223891 ) ) ;
#52 = DIRECTION ( 'NONE',  ( -3.491481338843133355E-15, 1.224646799147353207E-16, -1.000000000000000000 ) ) ;
#53 = CC_DESIGN_SECURITY_CLASSIFICATION ( #136, ( #224 ) ) ;
#54 = CARTESIAN_POINT ( 'NONE',  ( 8.135151519504501349E-14, -9.974659986866640793E-15, 23.30000000000000071 ) ) ;
#55 = AXIS2_PLACEMENT_3D ( 'NONE', #259, #14, #35 ) ;
#56 = EDGE_CURVE ( 'NONE', #219, #219, #195, .T. ) ;
#57 = DIRECTION ( 'NONE',  ( 0.0000000000000000000, 1.000000000000000000, 0.0000000000000000000 ) ) ;
#58 = CARTESIAN_POINT ( 'NONE',  ( 2.733829888314172723E-13, -9.588984437323771882E-15, 78.29999999999998295 ) ) ;
#59 = EDGE_LOOP ( 'NONE', ( #236 ) ) ;
#60 = ADVANCED_FACE ( 'NONE', ( #80, #229 ), #82, .T. ) ;
#61 = ORIENTED_EDGE ( 'NONE', *, *, #87, .F. ) ;
#62 = PERSON_AND_ORGANIZATION_ROLE ( 'design_supplier' ) ;
#63 = CARTESIAN_POINT ( 'NONE',  ( 8.309725586446657386E-14, -1.029867601159244774E-14, 23.80000000000000071 ) ) ;
#64 = APPROVAL_STATUS ( 'not_yet_approved' ) ;
#65 = CC_DESIGN_DATE_AND_TIME_ASSIGNMENT ( #173, #253, ( #262 ) ) ;
#66 = APPROVAL_DATE_TIME ( #215, #175 ) ;
#67 = LOCAL_TIME ( 14, 56, 55.00000000000000000, #148 ) ;
#68 = DIRECTION ( 'NONE',  ( 3.491481338843133355E-15, -1.224646799147353207E-16, 1.000000000000000000 ) ) ;
#69 = CARTESIAN_POINT ( 'NONE',  ( 7.052792304463129378E-14, 2.249639673992779022E-32, 20.19999999999999929 ) ) ;
#70 = CARTESIAN_POINT ( 'NONE',  ( 7.052792304463129378E-14, -1.550000000000012257, 20.19999999999999929 ) ) ;
#71 = VERTEX_POINT ( 'NONE', #75 ) ;
#72 = FACE_OUTER_BOUND ( 'NONE', #100, .T. ) ;
#73 = AXIS2_PLACEMENT_3D ( 'NONE', #69, #68, #135 ) ;
#74 = DIRECTION ( 'NONE',  ( -3.491481338843133355E-15, 1.224646799147353207E-16, -1.000000000000000000 ) ) ;
#75 = CARTESIAN_POINT ( 'NONE',  ( 8.135151519504501349E-14, 1.549999999999997158, 23.30000000000000071 ) ) ;
#76 = DIRECTION ( 'NONE',  ( -3.491481338843133355E-15, 1.224646799147353207E-16, -1.000000000000000000 ) ) ;
#77 = CC_DESIGN_APPROVAL ( #238, ( #224 ) ) ;
#78 = ORIENTED_EDGE ( 'NONE', *, *, #230, .T. ) ;
#79 = CC_DESIGN_PERSON_AND_ORGANIZATION_ASSIGNMENT ( #251, #62, ( #224 ) ) ;
#80 = FACE_OUTER_BOUND ( 'NONE', #209, .T. ) ;
#81 = ORIENTED_EDGE ( 'NONE', *, *, #254, .F. ) ;
#82 = CYLINDRICAL_SURFACE ( 'NONE', #171, 1.550000000000003597 ) ;
#83 = ORIENTED_EDGE ( 'NONE', *, *, #37, .F. ) ;
#84 = ORIENTED_EDGE ( 'NONE', *, *, #56, .F. ) ;
#85 = CONICAL_SURFACE ( 'NONE', #183, 3.500000000000008882, 0.5235987755982995928 ) ;
#86 = PERSON_AND_ORGANIZATION ( #115, #150 ) ;
#87 = EDGE_CURVE ( 'NONE', #139, #139, #96, .T. ) ;
#88 = DATE_AND_TIME ( #191, #144 ) ;
#89 = DIRECTION ( 'NONE',  ( 3.491481338843133355E-15, -1.224646799147353207E-16, 1.000000000000000000 ) ) ;
#90 = AXIS2_PLACEMENT_3D ( 'NONE', #247, #124, #21 ) ;
#91 = DIRECTION ( 'NONE',  ( -3.491481338843133355E-15, 1.224646799147353207E-16, -1.000000000000000000 ) ) ;
#92 = PERSON_AND_ORGANIZATION_ROLE ( 'design_owner' ) ;
#93 = ADVANCED_FACE ( 'NONE', ( #40, #120 ), #23, .T. ) ;
#94 = FACE_OUTER_BOUND ( 'NONE', #232, .T. ) ;
#95 = DIRECTION ( 'NONE',  ( 0.0000000000000000000, 1.000000000000000000, 0.0000000000000000000 ) ) ;
#96 = CIRCLE ( 'NONE', #248, 3.000000000000001332 ) ;
#97 = DIRECTION ( 'NONE',  ( -3.491481338843133355E-15, 4.327174794786742882E-16, -1.000000000000000000 ) ) ;
#98 = DIRECTION ( 'NONE',  ( 3.491481338843133355E-15, -4.327174794786742882E-16, 1.000000000000000000 ) ) ;
#99 = APPROVAL_PERSON_ORGANIZATION ( #244, #175, #108 ) ;
#100 = EDGE_LOOP ( 'NONE', ( #104 ) ) ;
#101 = EDGE_LOOP ( 'NONE', ( #145 ) ) ;
#102 = EDGE_LOOP ( 'NONE', ( #84 ) ) ;
#103 = APPROVAL_PERSON_ORGANIZATION ( #49, #238, #218 ) ;
#104 = ORIENTED_EDGE ( 'NONE', *, *, #131, .F. ) ;
#105 = PERSON_AND_ORGANIZATION_ROLE ( 'creator' ) ;
#106 = EDGE_LOOP ( 'NONE', ( #61 ) ) ;
#107 = AXIS2_PLACEMENT_3D ( 'NONE', #119, #74, #17 ) ;
#108 = APPROVAL_ROLE ( '' ) ;
#109 = APPLICATION_CONTEXT ( 'configuration controlled 3d designs of mechanical parts and assemblies' ) ;
#110 = PERSON_AND_ORGANIZATION ( #115, #150 ) ;
#111 = CARTESIAN_POINT ( 'NONE',  ( 7.052792304463129378E-14, 2.249639673992779022E-32, 20.19999999999999929 ) ) ;
#112 = VERTEX_POINT ( 'NONE', #12 ) ;
#113 = CIRCLE ( 'NONE', #165, 1.550000000000003597 ) ;
#114 = ADVANCED_FACE ( 'NONE', ( #246 ), #222, .F. ) ;
#115 = PERSON ( 'UNSPECIFIED', 'UNSPECIFIED', 'UNSPECIFIED', ('UNSPECIFIED'), ('UNSPECIFIED'), ('UNSPECIFIED') ) ;
#116 = CYLINDRICAL_SURFACE ( 'NONE', #220, 1.550000000000003597 ) ;
#117 = CARTESIAN_POINT ( 'NONE',  ( 8.309725586446657386E-14, 1.683974596215559449, 23.80000000000000071 ) ) ;
#118 = AXIS2_PLACEMENT_3D ( 'NONE', #147, #34, #213 ) ;
#119 = CARTESIAN_POINT ( 'NONE',  ( 2.758270257686075477E-13, 1.724723750061123112E-32, 79.00000000000000000 ) ) ;
#120 = FACE_BOUND ( 'NONE', #6, .T. ) ;
#121 = EDGE_LOOP ( 'NONE', ( #212 ) ) ;
#122 = DIRECTION ( 'NONE',  ( -3.491481338843133355E-15, 1.224646799147353207E-16, -1.000000000000000000 ) ) ;
#123 = CIRCLE ( 'NONE', #42, 1.550000000000007150 ) ;
#124 = DIRECTION ( 'NONE',  ( -3.491481338843133355E-15, 1.224646799147353207E-16, -1.000000000000000000 ) ) ;
#125 = ORIENTED_EDGE ( 'NONE', *, *, #37, .T. ) ;
#126 = CIRCLE ( 'NONE', #11, 1.683974596215569663 ) ;
#127 = EDGE_LOOP ( 'NONE', ( #83 ) ) ;
#128 = DIRECTION ( 'NONE',  ( 0.0000000000000000000, 0.0000000000000000000, 1.000000000000000000 ) ) ;
#129 = DATE_AND_TIME ( #8, #182 ) ;
#130 = ORIENTED_EDGE ( 'NONE', *, *, #208, .T. ) ;
#131 = EDGE_CURVE ( 'NONE', #71, #71, #123, .T. ) ;
#132 = MANIFOLD_SOLID_BREP ( 'Corps-Déplacer/Copier1[1]', #261 ) ;
#133 = MECHANICAL_CONTEXT ( 'NONE', #205, 'mechanical' ) ;
#134 = DATE_TIME_ROLE ( 'classification_date' ) ;
#135 = DIRECTION ( 'NONE',  ( -4.275831445896958607E-31, -1.000000000000000000, -1.224646799147353207E-16 ) ) ;
#136 = SECURITY_CLASSIFICATION ( '', '', #50 ) ;
#137 = DESIGN_CONTEXT ( 'detailed design', #109, 'design' ) ;
#138 = ADVANCED_FACE ( 'NONE', ( #181 ), #142, .T. ) ;
#139 = VERTEX_POINT ( 'NONE', #243 ) ;
#140 = ADVANCED_FACE ( 'NONE', ( #198, #155 ), #13, .T. ) ;
#141 = CARTESIAN_POINT ( 'NONE',  ( 0.0000000000000000000, 0.0000000000000000000, 0.0000000000000000000 ) ) ;
#142 = CONICAL_SURFACE ( 'NONE', #55, 2.999999999999992450, 1.221730476396026610 ) ;
#143 = EDGE_LOOP ( 'NONE', ( #27 ) ) ;
#144 = LOCAL_TIME ( 14, 56, 55.00000000000000000, #192 ) ;
#145 = ORIENTED_EDGE ( 'NONE', *, *, #208, .F. ) ;
#146 = APPROVAL_DATE_TIME ( #129, #158 ) ;
#147 = CARTESIAN_POINT ( 'NONE',  ( 9.105581825538090788E-14, -1.128502212771154303E-14, 26.07942286340597349 ) ) ;
#148 = COORDINATED_UNIVERSAL_TIME_OFFSET ( 1, 0, .AHEAD. ) ;
#149 = DIRECTION ( 'NONE',  ( -3.491481338843133355E-15, 1.224646799147353207E-16, -1.000000000000000000 ) ) ;
#150 = ORGANIZATION ( 'UNSPECIFIED', 'UNSPECIFIED', '' ) ;
#151 = PERSON_AND_ORGANIZATION_ROLE ( 'creator' ) ;
#152 = PLANE ( 'NONE',  #1 ) ;
#153 = ADVANCED_FACE ( 'NONE', ( #94, #174 ), #116, .T. ) ;
#154 = CALENDAR_DATE ( 2021, 13, 10 ) ;
#155 = FACE_OUTER_BOUND ( 'NONE', #249, .T. ) ;
#156 = AXIS2_PLACEMENT_3D ( 'NONE', #245, #52, #38 ) ;
#157 = DIRECTION ( 'NONE',  ( -3.491481338843133355E-15, 4.327174794786742882E-16, -1.000000000000000000 ) ) ;
#158 = APPROVAL ( #46, 'UNSPECIFIED' ) ;
#159 = UNCERTAINTY_MEASURE_WITH_UNIT (LENGTH_MEASURE( 1.000000000000000082E-05 ), #32, 'distance_accuracy_value', 'NONE');
#160 = VERTEX_POINT ( 'NONE', #177 ) ;
#161 = ADVANCED_FACE ( 'NONE', ( #72, #263 ), #234, .F. ) ;
#162 = CARTESIAN_POINT ( 'NONE',  ( 1.969732685293985258E-15, -6.908892226874874255E-17, 0.5641538631126226111 ) ) ;
#163 = DIRECTION ( 'NONE',  ( 1.510825004591027855E-30, 1.000000000000000000, 4.327174794786742882E-16 ) ) ;
#164 = CC_DESIGN_PERSON_AND_ORGANIZATION_ASSIGNMENT ( #86, #151, ( #262 ) ) ;
#165 = AXIS2_PLACEMENT_3D ( 'NONE', #162, #122, #20 ) ;
#166 = ORIENTED_EDGE ( 'NONE', *, *, #200, .F. ) ;
#167 = APPROVAL_DATE_TIME ( #33, #238 ) ;
#168 = APPLICATION_PROTOCOL_DEFINITION ( 'international standard', 'config_control_design', 1994, #109 ) ;
#169 = DIRECTION ( 'NONE',  ( -3.491481338843133355E-15, 4.327174794786742882E-16, -1.000000000000000000 ) ) ;
#170 =( NAMED_UNIT ( * ) SI_UNIT ( $, .STERADIAN. ) SOLID_ANGLE_UNIT ( ) );
#171 = AXIS2_PLACEMENT_3D ( 'NONE', #141, #226, #163 ) ;
#172 = DIRECTION ( 'NONE',  ( 0.0000000000000000000, -1.000000000000000000, 0.0000000000000000000 ) ) ;
#173 = DATE_AND_TIME ( #241, #67 ) ;
#174 = FACE_OUTER_BOUND ( 'NONE', #127, .T. ) ;
#175 = APPROVAL ( #64, 'UNSPECIFIED' ) ;
#176 = DIRECTION ( 'NONE',  ( 1.510825004591027855E-30, 1.000000000000000000, 4.327174794786742882E-16 ) ) ;
#177 = CARTESIAN_POINT ( 'NONE',  ( 9.105581825538090788E-14, -3.000000000000009770, 26.07942286340597349 ) ) ;
#178 = CIRCLE ( 'NONE', #214, 1.550000000000003597 ) ;
#179 = CARTESIAN_POINT ( 'NONE',  ( 8.135151519504501349E-14, -1.008231727185311218E-14, 23.30000000000000071 ) ) ;
#180 = ADVANCED_FACE ( 'NONE', ( #260 ), #255, .F. ) ;
#181 = FACE_OUTER_BOUND ( 'NONE', #185, .T. ) ;
#182 = LOCAL_TIME ( 14, 56, 55.00000000000000000, #47 ) ;
#183 = AXIS2_PLACEMENT_3D ( 'NONE', #206, #98, #41 ) ;
#184 = ORIENTED_EDGE ( 'NONE', *, *, #87, .T. ) ;
#185 = EDGE_LOOP ( 'NONE', ( #125 ) ) ;
#186 = COORDINATED_UNIVERSAL_TIME_OFFSET ( 1, 0, .AHEAD. ) ;
#187 = EDGE_LOOP ( 'NONE', ( #130 ) ) ;
#188 = CIRCLE ( 'NONE', #118, 2.999999999999998224 ) ;
#189 = PERSON_AND_ORGANIZATION ( #115, #150 ) ;
#190 = CARTESIAN_POINT ( 'NONE',  ( 7.052792304463129378E-14, -8.740893085469220937E-15, 20.19999999999999929 ) ) ;
#191 = CALENDAR_DATE ( 2021, 13, 10 ) ;
#192 = COORDINATED_UNIVERSAL_TIME_OFFSET ( 1, 0, .AHEAD. ) ;
#193 = DIRECTION ( 'NONE',  ( -4.275831445896958607E-31, -1.000000000000000000, -1.224646799147353207E-16 ) ) ;
#194 = VERTEX_POINT ( 'NONE', #117 ) ;
#195 = CIRCLE ( 'NONE', #90, 2.300000000000001599 ) ;
#196 = DIRECTION ( 'NONE',  ( 1.000000000000000000, 0.0000000000000000000, 0.0000000000000000000 ) ) ;
#197 = PERSON_AND_ORGANIZATION ( #115, #150 ) ;
#198 = FACE_OUTER_BOUND ( 'NONE', #187, .T. ) ;
#199 = DIRECTION ( 'NONE',  ( -3.491481338843133355E-15, 4.327174794786742882E-16, -1.000000000000000000 ) ) ;
#200 = EDGE_CURVE ( 'NONE', #194, #194, #126, .T. ) ;
#201 = DIRECTION ( 'NONE',  ( 1.510825004591027855E-30, 1.000000000000000000, 4.327174794786742882E-16 ) ) ;
#202 = DIRECTION ( 'NONE',  ( 0.0000000000000000000, 1.000000000000000000, 0.0000000000000000000 ) ) ;
#203 =( GEOMETRIC_REPRESENTATION_CONTEXT ( 3 ) GLOBAL_UNCERTAINTY_ASSIGNED_CONTEXT ( ( #159 ) ) GLOBAL_UNIT_ASSIGNED_CONTEXT ( ( #32, #29, #170 ) ) REPRESENTATION_CONTEXT ( 'NONE', 'WORKASPACE' ) );
#204 = DIRECTION ( 'NONE',  ( -3.491481338843133355E-15, 1.224646799147353207E-16, -1.000000000000000000 ) ) ;
#205 = APPLICATION_CONTEXT ( 'configuration controlled 3d designs of mechanical parts and assemblies' ) ;
#206 = CARTESIAN_POINT ( 'NONE',  ( 9.407952979165842482E-14, -1.165976645760165339E-14, 26.94544826719042874 ) ) ;
#207 = CC_DESIGN_DATE_AND_TIME_ASSIGNMENT ( #88, #134, ( #136 ) ) ;
#208 = EDGE_CURVE ( 'NONE', #160, #160, #188, .T. ) ;
#209 = EDGE_LOOP ( 'NONE', ( #211 ) ) ;
#210 = AXIS2_PLACEMENT_3D ( 'NONE', #54, #157, #201 ) ;
#211 = ORIENTED_EDGE ( 'NONE', *, *, #131, .T. ) ;
#212 = ORIENTED_EDGE ( 'NONE', *, *, #200, .T. ) ;
#213 = DIRECTION ( 'NONE',  ( 0.0000000000000000000, -1.000000000000000000, 0.0000000000000000000 ) ) ;
#214 = AXIS2_PLACEMENT_3D ( 'NONE', #10, #91, #172 ) ;
#215 = DATE_AND_TIME ( #154, #44 ) ;
#216 = DIRECTION ( 'NONE',  ( 0.0000000000000000000, -1.000000000000000000, 0.0000000000000000000 ) ) ;
#217 = MANIFOLD_SOLID_BREP ( 'Corps-Déplacer/Copier1[2]', #228 ) ;
#218 = APPROVAL_ROLE ( '' ) ;
#219 = VERTEX_POINT ( 'NONE', #4 ) ;
#220 = AXIS2_PLACEMENT_3D ( 'NONE', #221, #199, #176 ) ;
#221 = CARTESIAN_POINT ( 'NONE',  ( 0.0000000000000000000, 0.0000000000000000000, 0.0000000000000000000 ) ) ;
#222 = PLANE ( 'NONE',  #107 ) ;
#223 = CARTESIAN_POINT ( 'NONE',  ( 2.758270257686075477E-13, -9.674709713264090904E-15, 79.00000000000000000 ) ) ;
#224 = PRODUCT_DEFINITION_FORMATION_WITH_SPECIFIED_SOURCE ( 'ANY', '', #22, .NOT_KNOWN. ) ;
#225 = CC_DESIGN_PERSON_AND_ORGANIZATION_ASSIGNMENT ( #189, #105, ( #224 ) ) ;
#226 = DIRECTION ( 'NONE',  ( -3.491481338843133355E-15, 4.327174794786742882E-16, -1.000000000000000000 ) ) ;
#227 = ADVANCED_BREP_SHAPE_REPRESENTATION ( '960148', ( #132, #217, #240 ), #203 ) ;
#228 = CLOSED_SHELL ( 'NONE', ( #138, #153, #235 ) ) ;
#229 = FACE_OUTER_BOUND ( 'NONE', #45, .T. ) ;
#230 = EDGE_CURVE ( 'NONE', #112, #112, #250, .T. ) ;
#231 = FACE_OUTER_BOUND ( 'NONE', #101, .T. ) ;
#232 = EDGE_LOOP ( 'NONE', ( #78 ) ) ;
#233 = APPLICATION_PROTOCOL_DEFINITION ( 'international standard', 'config_control_design', 1994, #205 ) ;
#234 = TOROIDAL_SURFACE ( 'NONE', #210, 2.550000000000006484, 0.9999999999999986677 ) ;
#235 = ADVANCED_FACE ( 'NONE', ( #31 ), #152, .T. ) ;
#236 = ORIENTED_EDGE ( 'NONE', *, *, #254, .T. ) ;
#237 = SHAPE_DEFINITION_REPRESENTATION ( #3, #227 ) ;
#238 = APPROVAL ( #239, 'UNSPECIFIED' ) ;
#239 = APPROVAL_STATUS ( 'not_yet_approved' ) ;
#240 = AXIS2_PLACEMENT_3D ( 'NONE', #18, #128, #196 ) ;
#241 = CALENDAR_DATE ( 2021, 13, 10 ) ;
#242 = VERTEX_POINT ( 'NONE', #51 ) ;
#243 = CARTESIAN_POINT ( 'NONE',  ( 2.733829888314172723E-13, 2.999999999999992006, 78.29999999999998295 ) ) ;
#244 = PERSON_AND_ORGANIZATION ( #115, #150 ) ;
#245 = CARTESIAN_POINT ( 'NONE',  ( 0.0000000000000000000, 0.0000000000000000000, 0.0000000000000000000 ) ) ;
#246 = FACE_OUTER_BOUND ( 'NONE', #102, .T. ) ;
#247 = CARTESIAN_POINT ( 'NONE',  ( 2.758270257686075477E-13, -9.674709713264090904E-15, 79.00000000000000000 ) ) ;
#248 = AXIS2_PLACEMENT_3D ( 'NONE', #58, #76, #202 ) ;
#249 = EDGE_LOOP ( 'NONE', ( #184 ) ) ;
#250 = CIRCLE ( 'NONE', #30, 1.550000000000003597 ) ;
#251 = PERSON_AND_ORGANIZATION ( #115, #150 ) ;
#252 = CC_DESIGN_PERSON_AND_ORGANIZATION_ASSIGNMENT ( #110, #26, ( #136 ) ) ;
#253 = DATE_TIME_ROLE ( 'creation_date' ) ;
#254 = EDGE_CURVE ( 'NONE', #257, #257, #178, .T. ) ;
#255 = PLANE ( 'NONE',  #73 ) ;
#256 = LOCAL_TIME ( 14, 56, 55.00000000000000000, #5 ) ;
#257 = VERTEX_POINT ( 'NONE', #70 ) ;
#258 = APPROVAL_ROLE ( '' ) ;
#259 = CARTESIAN_POINT ( 'NONE',  ( 3.812385842504467288E-15, -1.337204947137065176E-16, 1.091910702798618571 ) ) ;
#260 = FACE_OUTER_BOUND ( 'NONE', #59, .T. ) ;
#261 = CLOSED_SHELL ( 'NONE', ( #140, #93, #114, #60, #16, #161, #180 ) ) ;
#262 = PRODUCT_DEFINITION ( 'UNKNOWN', '', #224, #137 ) ;
#263 = FACE_OUTER_BOUND ( 'NONE', #121, .T. ) ;
ENDSEC;
END-ISO-10303-21;
