ISO-10303-21;
HEADER;
FILE_DESCRIPTION (( 'STEP AP203' ),
    '1' );
FILE_NAME ('960147.step',
    '2021-10-13T12:56:54',
    ( '' ),
    ( '' ),
    'SwSTEP 2.0',
    'SolidWorks 2019',
    '' );
FILE_SCHEMA (( 'CONFIG_CONTROL_DESIGN' ));
ENDSEC;

DATA;
#1 = ADVANCED_FACE ( 'NONE', ( #10, #34 ), #213, .T. ) ;
#2 = VERTEX_POINT ( 'NONE', #247 ) ;
#3 = ORIENTED_EDGE ( 'NONE', *, *, #41, .F. ) ;
#4 = APPROVAL_PERSON_ORGANIZATION ( #9, #250, #114 ) ;
#5 = ADVANCED_FACE ( 'NONE', ( #219 ), #48, .T. ) ;
#6 = DIRECTION ( 'NONE',  ( 3.491481338843133355E-15, -1.224646799147353207E-16, 1.000000000000000000 ) ) ;
#7 = DIRECTION ( 'NONE',  ( -3.491481338843133355E-15, 4.327174794786742882E-16, -1.000000000000000000 ) ) ;
#8 = ADVANCED_FACE ( 'NONE', ( #118 ), #58, .T. ) ;
#9 = PERSON_AND_ORGANIZATION ( #55, #129 ) ;
#10 = FACE_OUTER_BOUND ( 'NONE', #84, .T. ) ;
#11 = LOCAL_TIME ( 14, 56, 54.00000000000000000, #71 ) ;
#12 = CALENDAR_DATE ( 2021, 13, 10 ) ;
#13 = CARTESIAN_POINT ( 'NONE',  ( 6.808388610744110674E-14, -1.500000000000011990, 19.50000000000000000 ) ) ;
#14 = CARTESIAN_POINT ( 'NONE',  ( 1.906192921252243505E-15, -6.686024735685360393E-17, 0.5459553513993120610 ) ) ;
#15 = EDGE_LOOP ( 'NONE', ( #201 ) ) ;
#16 = CONICAL_SURFACE ( 'NONE', #33, 1.499999999999996447, 0.7853981633974480570 ) ;
#17 = CC_DESIGN_APPROVAL ( #121, ( #197 ) ) ;
#18 = MECHANICAL_CONTEXT ( 'NONE', #122, 'mechanical' ) ;
#19 = CIRCLE ( 'NONE', #222, 1.500000000000003553 ) ;
#20 = PERSON_AND_ORGANIZATION_ROLE ( 'design_owner' ) ;
#21 = AXIS2_PLACEMENT_3D ( 'NONE', #72, #102, #51 ) ;
#22 = ORIENTED_EDGE ( 'NONE', *, *, #154, .F. ) ;
#23 = VERTEX_POINT ( 'NONE', #245 ) ;
#24 = CARTESIAN_POINT ( 'NONE',  ( 0.0000000000000000000, 0.0000000000000000000, 0.0000000000000000000 ) ) ;
#25 = LOCAL_TIME ( 14, 56, 54.00000000000000000, #70 ) ;
#26 = ORIENTED_EDGE ( 'NONE', *, *, #243, .T. ) ;
#27 = AXIS2_PLACEMENT_3D ( 'NONE', #115, #136, #116 ) ;
#28 = CARTESIAN_POINT ( 'NONE',  ( 6.808388610744110674E-14, 1.499759782661847481E-32, 19.50000000000000000 ) ) ;
#29 = DATE_TIME_ROLE ( 'classification_date' ) ;
#30 = CARTESIAN_POINT ( 'NONE',  ( 2.164718430082742680E-13, -7.592810154713590230E-15, 62.00000000000000000 ) ) ;
#31 = DIRECTION ( 'NONE',  ( -3.491481338843133355E-15, 4.327174794786742882E-16, -1.000000000000000000 ) ) ;
#32 = DIRECTION ( 'NONE',  ( -3.851859888774492726E-31, -1.000000000000000000, -1.084202172485510350E-16 ) ) ;
#33 = AXIS2_PLACEMENT_3D ( 'NONE', #30, #183, #182 ) ;
#34 = FACE_OUTER_BOUND ( 'NONE', #61, .T. ) ;
#35 = CARTESIAN_POINT ( 'NONE',  ( 2.164718430082742680E-13, 1.124819836996379248E-32, 62.00000000000000000 ) ) ;
#36 = CARTESIAN_POINT ( 'NONE',  ( 0.0000000000000000000, 0.0000000000000000000, 0.0000000000000000000 ) ) ;
#37 = VERTEX_POINT ( 'NONE', #13 ) ;
#38 = MANIFOLD_SOLID_BREP ( 'Corps-Déplacer/Copier1[2]', #223 ) ;
#39 = AXIS2_PLACEMENT_3D ( 'NONE', #125, #106, #139 ) ;
#40 = VERTEX_POINT ( 'NONE', #186 ) ;
#41 = EDGE_CURVE ( 'NONE', #50, #50, #109, .T. ) ;
#42 = APPLICATION_CONTEXT ( 'configuration controlled 3d designs of mechanical parts and assemblies' ) ;
#43 = VERTEX_POINT ( 'NONE', #108 ) ;
#44 = PERSON_AND_ORGANIZATION_ROLE ( 'design_supplier' ) ;
#45 = APPROVAL_ROLE ( '' ) ;
#46 = APPROVAL_PERSON_ORGANIZATION ( #238, #121, #45 ) ;
#47 = AXIS2_PLACEMENT_3D ( 'NONE', #134, #6, #32 ) ;
#48 = PLANE ( 'NONE',  #177 ) ;
#49 = APPROVAL_STATUS ( 'not_yet_approved' ) ;
#50 = VERTEX_POINT ( 'NONE', #77 ) ;
#51 = DIRECTION ( 'NONE',  ( 4.275831445896959482E-31, 1.000000000000000000, 1.224646799147353207E-16 ) ) ;
#52 = DIRECTION ( 'NONE',  ( -3.491481338843133355E-15, 1.224646799147353207E-16, -1.000000000000000000 ) ) ;
#53 = CC_DESIGN_SECURITY_CLASSIFICATION ( #197, ( #135 ) ) ;
#54 = CC_DESIGN_PERSON_AND_ORGANIZATION_ASSIGNMENT ( #81, #20, ( #216 ) ) ;
#55 = PERSON ( 'UNSPECIFIED', 'UNSPECIFIED', 'UNSPECIFIED', ('UNSPECIFIED'), ('UNSPECIFIED'), ('UNSPECIFIED') ) ;
#56 = DIRECTION ( 'NONE',  ( -3.491481338843133355E-15, 4.327174794786742882E-16, -1.000000000000000000 ) ) ;
#57 = EDGE_CURVE ( 'NONE', #37, #37, #76, .T. ) ;
#58 = CONICAL_SURFACE ( 'NONE', #47, 1.999999999999989120, 1.221730476396026388 ) ;
#59 = CARTESIAN_POINT ( 'NONE',  ( 9.204837811275009514E-14, -1.140803524393080944E-14, 26.36370330515625326 ) ) ;
#60 = AXIS2_PLACEMENT_3D ( 'NONE', #218, #7, #96 ) ;
#61 = EDGE_LOOP ( 'NONE', ( #26 ) ) ;
#62 = VERTEX_POINT ( 'NONE', #145 ) ;
#63 = ORIENTED_EDGE ( 'NONE', *, *, #154, .T. ) ;
#64 = AXIS2_PLACEMENT_3D ( 'NONE', #36, #159, #163 ) ;
#65 = ORIENTED_EDGE ( 'NONE', *, *, #243, .F. ) ;
#66 = DATE_AND_TIME ( #131, #263 ) ;
#67 = FACE_OUTER_BOUND ( 'NONE', #111, .T. ) ;
#68 = PRODUCT_RELATED_PRODUCT_CATEGORY ( 'detail', '', ( #216 ) ) ;
#69 = DIRECTION ( 'NONE',  ( -4.275831445896958607E-31, -1.000000000000000000, -1.224646799147353207E-16 ) ) ;
#70 = COORDINATED_UNIVERSAL_TIME_OFFSET ( 1, 0, .AHEAD. ) ;
#71 = COORDINATED_UNIVERSAL_TIME_OFFSET ( 1, 0, .AHEAD. ) ;
#72 = CARTESIAN_POINT ( 'NONE',  ( 0.0000000000000000000, 0.0000000000000000000, 0.0000000000000000000 ) ) ;
#73 = PERSON_AND_ORGANIZATION ( #55, #129 ) ;
#74 = CC_DESIGN_DATE_AND_TIME_ASSIGNMENT ( #66, #29, ( #197 ) ) ;
#75 = AXIS2_PLACEMENT_3D ( 'NONE', #179, #56, #137 ) ;
#76 = CIRCLE ( 'NONE', #91, 1.500000000000003553 ) ;
#77 = CARTESIAN_POINT ( 'NONE',  ( 1.906192921252242716E-15, -1.500000000000003553, 0.5459553513993118390 ) ) ;
#78 = FACE_OUTER_BOUND ( 'NONE', #236, .T. ) ;
#79 = CC_DESIGN_APPROVAL ( #143, ( #124 ) ) ;
#80 = DIRECTION ( 'NONE',  ( 3.491481338843133355E-15, -4.327174794786742882E-16, 1.000000000000000000 ) ) ;
#81 = PERSON_AND_ORGANIZATION ( #55, #129 ) ;
#82 = DIRECTION ( 'NONE',  ( 4.275831445896958607E-31, 1.000000000000000000, 1.224646799147353207E-16 ) ) ;
#83 = VERTEX_POINT ( 'NONE', #228 ) ;
#84 = EDGE_LOOP ( 'NONE', ( #63 ) ) ;
#85 = EDGE_LOOP ( 'NONE', ( #65 ) ) ;
#86 = ADVANCED_FACE ( 'NONE', ( #256 ), #99, .F. ) ;
#87 = ORIENTED_EDGE ( 'NONE', *, *, #140, .F. ) ;
#88 = AXIS2_PLACEMENT_3D ( 'NONE', #184, #262, #90 ) ;
#89 = DATE_AND_TIME ( #117, #11 ) ;
#90 = DIRECTION ( 'NONE',  ( 0.0000000000000000000, 1.000000000000000000, 0.0000000000000000000 ) ) ;
#91 = AXIS2_PLACEMENT_3D ( 'NONE', #132, #173, #178 ) ;
#92 = EDGE_LOOP ( 'NONE', ( #144 ) ) ;
#93 = DATE_AND_TIME ( #176, #248 ) ;
#94 = DIRECTION ( 'NONE',  ( -3.491481338843133355E-15, 1.224646799147353207E-16, -1.000000000000000000 ) ) ;
#95 = COORDINATED_UNIVERSAL_TIME_OFFSET ( 1, 0, .AHEAD. ) ;
#96 = DIRECTION ( 'NONE',  ( 0.0000000000000000000, 1.000000000000000000, 0.0000000000000000000 ) ) ;
#97 = COORDINATED_UNIVERSAL_TIME_OFFSET ( 1, 0, .AHEAD. ) ;
#98 = LOCAL_TIME ( 14, 56, 54.00000000000000000, #95 ) ;
#99 = PLANE ( 'NONE',  #224 ) ;
#100 = CALENDAR_DATE ( 2021, 13, 10 ) ;
#101 = DIRECTION ( 'NONE',  ( -4.275831445896958607E-31, -1.000000000000000000, -1.224646799147353207E-16 ) ) ;
#102 = DIRECTION ( 'NONE',  ( -3.491481338843133355E-15, 1.224646799147353207E-16, -1.000000000000000000 ) ) ;
#103 = CYLINDRICAL_SURFACE ( 'NONE', #75, 1.500000000000003553 ) ;
#104 = CIRCLE ( 'NONE', #39, 1.999999999999994005 ) ;
#105 = CC_DESIGN_PERSON_AND_ORGANIZATION_ASSIGNMENT ( #251, #234, ( #124 ) ) ;
#106 = DIRECTION ( 'NONE',  ( 3.491481338843133355E-15, -4.327174794786742882E-16, 1.000000000000000000 ) ) ;
#107 = DIRECTION ( 'NONE',  ( 0.0000000000000000000, -1.000000000000000000, 0.0000000000000000000 ) ) ;
#108 = CARTESIAN_POINT ( 'NONE',  ( 7.855833012397049418E-14, 1.499999999999996891, 22.50000000000000000 ) ) ;
#109 = CIRCLE ( 'NONE', #191, 1.500000000000003553 ) ;
#110 = EDGE_LOOP ( 'NONE', ( #172 ) ) ;
#111 = EDGE_LOOP ( 'NONE', ( #128 ) ) ;
#112 = APPLICATION_PROTOCOL_DEFINITION ( 'international standard', 'config_control_design', 1994, #122 ) ;
#113 = EDGE_CURVE ( 'NONE', #40, #40, #203, .T. ) ;
#114 = APPROVAL_ROLE ( '' ) ;
#115 = CARTESIAN_POINT ( 'NONE',  ( 7.855833012397049418E-14, -9.736143288270171485E-15, 22.50000000000000000 ) ) ;
#116 = DIRECTION ( 'NONE',  ( 0.0000000000000000000, 1.000000000000000000, 0.0000000000000000000 ) ) ;
#117 = CALENDAR_DATE ( 2021, 13, 10 ) ;
#118 = FACE_OUTER_BOUND ( 'NONE', #15, .T. ) ;
#119 = CARTESIAN_POINT ( 'NONE',  ( 7.855833012397049418E-14, -9.540979117872439019E-15, 22.50000000000000000 ) ) ;
#120 = DIRECTION ( 'NONE',  ( 3.491481338843133355E-15, -1.224646799147353207E-16, 1.000000000000000000 ) ) ;
#121 = APPROVAL ( #49, 'UNSPECIFIED' ) ;
#122 = APPLICATION_CONTEXT ( 'configuration controlled 3d designs of mechanical parts and assemblies' ) ;
#123 = DIRECTION ( 'NONE',  ( 0.0000000000000000000, -1.000000000000000000, 0.0000000000000000000 ) ) ;
#124 = PRODUCT_DEFINITION ( 'UNKNOWN', '', #135, #233 ) ;
#125 = CARTESIAN_POINT ( 'NONE',  ( 8.553318523762938173E-14, -1.060057343456201533E-14, 24.49767790137177670 ) ) ;
#126 = APPLICATION_PROTOCOL_DEFINITION ( 'international standard', 'config_control_design', 1994, #42 ) ;
#127 =( LENGTH_UNIT ( ) NAMED_UNIT ( * ) SI_UNIT ( .MILLI., .METRE. ) );
#128 = ORIENTED_EDGE ( 'NONE', *, *, #140, .T. ) ;
#129 = ORGANIZATION ( 'UNSPECIFIED', 'UNSPECIFIED', '' ) ;
#130 = AXIS2_PLACEMENT_3D ( 'NONE', #24, #209, #170 ) ;
#131 = CALENDAR_DATE ( 2021, 13, 10 ) ;
#132 = CARTESIAN_POINT ( 'NONE',  ( 6.808388610744110674E-14, -8.437990849834148620E-15, 19.50000000000000000 ) ) ;
#133 = EDGE_CURVE ( 'NONE', #43, #43, #142, .T. ) ;
#134 = CARTESIAN_POINT ( 'NONE',  ( 2.541590561669638548E-15, -8.914699647580411499E-17, 0.7279404685324105673 ) ) ;
#135 = PRODUCT_DEFINITION_FORMATION_WITH_SPECIFIED_SOURCE ( 'ANY', '', #216, .NOT_KNOWN. ) ;
#136 = DIRECTION ( 'NONE',  ( -3.491481338843133355E-15, 4.327174794786742882E-16, -1.000000000000000000 ) ) ;
#137 = DIRECTION ( 'NONE',  ( 1.510825004591027679E-30, 1.000000000000000000, 4.327174794786742389E-16 ) ) ;
#138 = CLOSED_SHELL ( 'NONE', ( #1, #148, #180, #204, #185, #246, #86 ) ) ;
#139 = DIRECTION ( 'NONE',  ( 0.0000000000000000000, -1.000000000000000000, 0.0000000000000000000 ) ) ;
#140 = EDGE_CURVE ( 'NONE', #23, #23, #181, .T. ) ;
#141 =( GEOMETRIC_REPRESENTATION_CONTEXT ( 3 ) GLOBAL_UNCERTAINTY_ASSIGNED_CONTEXT ( ( #161 ) ) GLOBAL_UNIT_ASSIGNED_CONTEXT ( ( #127, #225, #230 ) ) REPRESENTATION_CONTEXT ( 'NONE', 'WORKASPACE' ) );
#142 = CIRCLE ( 'NONE', #27, 1.500000000000006661 ) ;
#143 = APPROVAL ( #188, 'UNSPECIFIED' ) ;
#144 = ORIENTED_EDGE ( 'NONE', *, *, #57, .F. ) ;
#145 = CARTESIAN_POINT ( 'NONE',  ( 2.147261023388527077E-13, 1.999999999999989120, 61.50000000000000000 ) ) ;
#146 = ORIENTED_EDGE ( 'NONE', *, *, #133, .F. ) ;
#147 = CONICAL_SURFACE ( 'NONE', #171, 2.500000000000005329, 0.2617993877991502960 ) ;
#148 = ADVANCED_FACE ( 'NONE', ( #175, #215 ), #16, .T. ) ;
#149 = APPROVAL_DATE_TIME ( #198, #121 ) ;
#150 = PERSON_AND_ORGANIZATION ( #55, #129 ) ;
#151 = DIRECTION ( 'NONE',  ( 0.0000000000000000000, 1.000000000000000000, 0.0000000000000000000 ) ) ;
#152 = DATE_TIME_ROLE ( 'creation_date' ) ;
#153 = ORIENTED_EDGE ( 'NONE', *, *, #113, .T. ) ;
#154 = EDGE_CURVE ( 'NONE', #2, #2, #104, .T. ) ;
#155 = APPROVAL_DATE_TIME ( #93, #143 ) ;
#156 = ORIENTED_EDGE ( 'NONE', *, *, #231, .F. ) ;
#157 = COORDINATED_UNIVERSAL_TIME_OFFSET ( 1, 0, .AHEAD. ) ;
#158 = CARTESIAN_POINT ( 'NONE',  ( 6.808388610744110674E-14, 1.499759782661847481E-32, 19.50000000000000000 ) ) ;
#159 = DIRECTION ( 'NONE',  ( -3.491481338843133355E-15, 4.327174794786742882E-16, -1.000000000000000000 ) ) ;
#160 = AXIS2_PLACEMENT_3D ( 'NONE', #35, #261, #82 ) ;
#161 = UNCERTAINTY_MEASURE_WITH_UNIT (LENGTH_MEASURE( 1.000000000000000082E-05 ), #127, 'distance_accuracy_value', 'NONE');
#162 = PLANE ( 'NONE',  #160 ) ;
#163 = DIRECTION ( 'NONE',  ( 1.510825004591027679E-30, 1.000000000000000000, 4.327174794786742389E-16 ) ) ;
#164 = CYLINDRICAL_SURFACE ( 'NONE', #64, 1.500000000000003553 ) ;
#165 = ADVANCED_BREP_SHAPE_REPRESENTATION ( '960147', ( #220, #38, #130 ), #141 ) ;
#166 = CC_DESIGN_PERSON_AND_ORGANIZATION_ASSIGNMENT ( #194, #44, ( #135 ) ) ;
#167 = EDGE_LOOP ( 'NONE', ( #229 ) ) ;
#168 = ORIENTED_EDGE ( 'NONE', *, *, #57, .T. ) ;
#169 = EDGE_LOOP ( 'NONE', ( #156 ) ) ;
#170 = DIRECTION ( 'NONE',  ( 1.000000000000000000, 0.0000000000000000000, 0.0000000000000000000 ) ) ;
#171 = AXIS2_PLACEMENT_3D ( 'NONE', #59, #80, #123 ) ;
#172 = ORIENTED_EDGE ( 'NONE', *, *, #231, .T. ) ;
#173 = DIRECTION ( 'NONE',  ( -3.491481338843133355E-15, 1.224646799147353207E-16, -1.000000000000000000 ) ) ;
#174 = PERSON_AND_ORGANIZATION ( #55, #129 ) ;
#175 = FACE_OUTER_BOUND ( 'NONE', #85, .T. ) ;
#176 = CALENDAR_DATE ( 2021, 13, 10 ) ;
#177 = AXIS2_PLACEMENT_3D ( 'NONE', #158, #120, #101 ) ;
#178 = DIRECTION ( 'NONE',  ( 0.0000000000000000000, -1.000000000000000000, 0.0000000000000000000 ) ) ;
#179 = CARTESIAN_POINT ( 'NONE',  ( 0.0000000000000000000, 0.0000000000000000000, 0.0000000000000000000 ) ) ;
#180 = ADVANCED_FACE ( 'NONE', ( #208 ), #162, .F. ) ;
#181 = CIRCLE ( 'NONE', #60, 1.534074173710938904 ) ;
#182 = DIRECTION ( 'NONE',  ( 0.0000000000000000000, 1.000000000000000000, 0.0000000000000000000 ) ) ;
#183 = DIRECTION ( 'NONE',  ( -3.491481338843133355E-15, 1.224646799147353207E-16, -1.000000000000000000 ) ) ;
#184 = CARTESIAN_POINT ( 'NONE',  ( 2.147261023388527077E-13, -7.531577814756222656E-15, 61.50000000000000000 ) ) ;
#185 = ADVANCED_FACE ( 'NONE', ( #241, #244 ), #147, .T. ) ;
#186 = CARTESIAN_POINT ( 'NONE',  ( 2.164718430082742680E-13, 1.499999999999988676, 62.00000000000000000 ) ) ;
#187 = EDGE_LOOP ( 'NONE', ( #153 ) ) ;
#188 = APPROVAL_STATUS ( 'not_yet_approved' ) ;
#189 = EDGE_LOOP ( 'NONE', ( #3 ) ) ;
#190 = APPROVAL_PERSON_ORGANIZATION ( #174, #143, #255 ) ;
#191 = AXIS2_PLACEMENT_3D ( 'NONE', #14, #94, #195 ) ;
#192 = ORIENTED_EDGE ( 'NONE', *, *, #133, .T. ) ;
#193 = ADVANCED_FACE ( 'NONE', ( #78, #206 ), #164, .T. ) ;
#194 = PERSON_AND_ORGANIZATION ( #55, #129 ) ;
#195 = DIRECTION ( 'NONE',  ( -5.135813185032616388E-31, -1.000000000000000000, -1.445602896647335712E-16 ) ) ;
#196 = SHAPE_DEFINITION_REPRESENTATION ( #200, #165 ) ;
#197 = SECURITY_CLASSIFICATION ( '', '', #232 ) ;
#198 = DATE_AND_TIME ( #100, #98 ) ;
#199 = DIRECTION ( 'NONE',  ( 1.510825004591027679E-30, 1.000000000000000000, 4.327174794786742882E-16 ) ) ;
#200 = PRODUCT_DEFINITION_SHAPE ( 'NONE', 'NONE',  #124 ) ;
#201 = ORIENTED_EDGE ( 'NONE', *, *, #41, .T. ) ;
#202 = CIRCLE ( 'NONE', #88, 1.999999999999996669 ) ;
#203 = CIRCLE ( 'NONE', #260, 1.499999999999996447 ) ;
#204 = ADVANCED_FACE ( 'NONE', ( #240, #239 ), #103, .T. ) ;
#205 = DIRECTION ( 'NONE',  ( -3.491481338843133355E-15, 1.224646799147353207E-16, -1.000000000000000000 ) ) ;
#206 = FACE_OUTER_BOUND ( 'NONE', #189, .T. ) ;
#207 = CC_DESIGN_APPROVAL ( #250, ( #135 ) ) ;
#208 = FACE_OUTER_BOUND ( 'NONE', #167, .T. ) ;
#209 = DIRECTION ( 'NONE',  ( 0.0000000000000000000, 0.0000000000000000000, 1.000000000000000000 ) ) ;
#210 = EDGE_LOOP ( 'NONE', ( #192 ) ) ;
#211 = PERSON_AND_ORGANIZATION_ROLE ( 'creator' ) ;
#212 = CC_DESIGN_DATE_AND_TIME_ASSIGNMENT ( #257, #152, ( #124 ) ) ;
#213 = CYLINDRICAL_SURFACE ( 'NONE', #21, 1.999999999999994005 ) ;
#214 = APPROVAL_STATUS ( 'not_yet_approved' ) ;
#215 = FACE_BOUND ( 'NONE', #187, .T. ) ;
#216 = PRODUCT ( '960147', '960147', '', ( #18 ) ) ;
#217 = AXIS2_PLACEMENT_3D ( 'NONE', #119, #31, #199 ) ;
#218 = CARTESIAN_POINT ( 'NONE',  ( 7.946199199008315156E-14, -9.848138813108011918E-15, 22.75881904510252340 ) ) ;
#219 = FACE_OUTER_BOUND ( 'NONE', #92, .T. ) ;
#220 = MANIFOLD_SOLID_BREP ( 'Corps-Déplacer/Copier1[1]', #138 ) ;
#221 = CARTESIAN_POINT ( 'NONE',  ( 6.808388610744110674E-14, -8.437990849834148620E-15, 19.50000000000000000 ) ) ;
#222 = AXIS2_PLACEMENT_3D ( 'NONE', #221, #205, #107 ) ;
#223 = CLOSED_SHELL ( 'NONE', ( #8, #193, #5 ) ) ;
#224 = AXIS2_PLACEMENT_3D ( 'NONE', #28, #254, #69 ) ;
#225 =( NAMED_UNIT ( * ) PLANE_ANGLE_UNIT ( ) SI_UNIT ( $, .RADIAN. ) );
#226 = EDGE_LOOP ( 'NONE', ( #22 ) ) ;
#227 = CC_DESIGN_PERSON_AND_ORGANIZATION_ASSIGNMENT ( #150, #211, ( #135 ) ) ;
#228 = CARTESIAN_POINT ( 'NONE',  ( 6.808388610744110674E-14, -1.500000000000011990, 19.50000000000000000 ) ) ;
#229 = ORIENTED_EDGE ( 'NONE', *, *, #113, .F. ) ;
#230 =( NAMED_UNIT ( * ) SI_UNIT ( $, .STERADIAN. ) SOLID_ANGLE_UNIT ( ) );
#231 = EDGE_CURVE ( 'NONE', #83, #83, #19, .T. ) ;
#232 = SECURITY_CLASSIFICATION_LEVEL ( 'unclassified' ) ;
#233 = DESIGN_CONTEXT ( 'detailed design', #42, 'design' ) ;
#234 = PERSON_AND_ORGANIZATION_ROLE ( 'creator' ) ;
#235 = APPROVAL_DATE_TIME ( #89, #250 ) ;
#236 = EDGE_LOOP ( 'NONE', ( #168 ) ) ;
#237 = PERSON_AND_ORGANIZATION_ROLE ( 'classification_officer' ) ;
#238 = PERSON_AND_ORGANIZATION ( #55, #129 ) ;
#239 = FACE_OUTER_BOUND ( 'NONE', #169, .T. ) ;
#240 = FACE_OUTER_BOUND ( 'NONE', #210, .T. ) ;
#241 = FACE_BOUND ( 'NONE', #253, .T. ) ;
#242 = TOROIDAL_SURFACE ( 'NONE', #217, 2.500000000000006661, 1.000000000000000000 ) ;
#243 = EDGE_CURVE ( 'NONE', #62, #62, #202, .T. ) ;
#244 = FACE_OUTER_BOUND ( 'NONE', #226, .T. ) ;
#245 = CARTESIAN_POINT ( 'NONE',  ( 7.946199199008315156E-14, 1.534074173710929134, 22.75881904510252340 ) ) ;
#246 = ADVANCED_FACE ( 'NONE', ( #252, #67 ), #242, .F. ) ;
#247 = CARTESIAN_POINT ( 'NONE',  ( 8.553318523762938173E-14, -2.000000000000004441, 24.49767790137177670 ) ) ;
#248 = LOCAL_TIME ( 14, 56, 54.00000000000000000, #97 ) ;
#249 = EDGE_LOOP ( 'NONE', ( #146 ) ) ;
#250 = APPROVAL ( #214, 'UNSPECIFIED' ) ;
#251 = PERSON_AND_ORGANIZATION ( #55, #129 ) ;
#252 = FACE_OUTER_BOUND ( 'NONE', #249, .T. ) ;
#253 = EDGE_LOOP ( 'NONE', ( #87 ) ) ;
#254 = DIRECTION ( 'NONE',  ( 3.491481338843133355E-15, -1.224646799147353207E-16, 1.000000000000000000 ) ) ;
#255 = APPROVAL_ROLE ( '' ) ;
#256 = FACE_OUTER_BOUND ( 'NONE', #110, .T. ) ;
#257 = DATE_AND_TIME ( #12, #25 ) ;
#258 = CC_DESIGN_PERSON_AND_ORGANIZATION_ASSIGNMENT ( #73, #237, ( #197 ) ) ;
#259 = CARTESIAN_POINT ( 'NONE',  ( 2.164718430082742680E-13, -7.592810154713590230E-15, 62.00000000000000000 ) ) ;
#260 = AXIS2_PLACEMENT_3D ( 'NONE', #259, #52, #151 ) ;
#261 = DIRECTION ( 'NONE',  ( -3.491481338843133355E-15, 1.224646799147353207E-16, -1.000000000000000000 ) ) ;
#262 = DIRECTION ( 'NONE',  ( -3.491481338843133355E-15, 1.224646799147353207E-16, -1.000000000000000000 ) ) ;
#263 = LOCAL_TIME ( 14, 56, 54.00000000000000000, #157 ) ;
ENDSEC;
END-ISO-10303-21;
