ISO-10303-21;
HEADER;
FILE_DESCRIPTION (( 'STEP AP203' ),
    '1' );
FILE_NAME ('960146.step',
    '2021-10-13T12:56:54',
    ( '' ),
    ( '' ),
    'SwSTEP 2.0',
    'SolidWorks 2019',
    '' );
FILE_SCHEMA (( 'CONFIG_CONTROL_DESIGN' ));
ENDSEC;

DATA;
#1 = EDGE_LOOP ( 'NONE', ( #130 ) ) ;
#2 = CYLINDRICAL_SURFACE ( 'NONE', #43, 1.450000000000003286 ) ;
#3 = ADVANCED_FACE ( 'NONE', ( #135, #150 ), #231, .T. ) ;
#4 = VERTEX_POINT ( 'NONE', #168 ) ;
#5 = AXIS2_PLACEMENT_3D ( 'NONE', #27, #143, #226 ) ;
#6 = ORIENTED_EDGE ( 'NONE', *, *, #69, .F. ) ;
#7 = VERTEX_POINT ( 'NONE', #213 ) ;
#8 = CC_DESIGN_PERSON_AND_ORGANIZATION_ASSIGNMENT ( #131, #255, ( #164 ) ) ;
#9 = EDGE_LOOP ( 'NONE', ( #6 ) ) ;
#10 = DIRECTION ( 'NONE',  ( 3.491481338843133355E-15, -1.224646799147353207E-16, 1.000000000000000000 ) ) ;
#11 = PRODUCT_DEFINITION_SHAPE ( 'NONE', 'NONE',  #124 ) ;
#12 = LOCAL_TIME ( 14, 56, 54.00000000000000000, #181 ) ;
#13 = ORIENTED_EDGE ( 'NONE', *, *, #167, .T. ) ;
#14 = APPLICATION_CONTEXT ( 'configuration controlled 3d designs of mechanical parts and assemblies' ) ;
#15 = DIRECTION ( 'NONE',  ( -4.275831445896958607E-31, -1.000000000000000000, -1.224646799147353207E-16 ) ) ;
#16 = APPROVAL_ROLE ( '' ) ;
#17 = CALENDAR_DATE ( 2021, 13, 10 ) ;
#18 = CC_DESIGN_DATE_AND_TIME_ASSIGNMENT ( #140, #244, ( #114 ) ) ;
#19 = DATE_AND_TIME ( #201, #110 ) ;
#20 = DIRECTION ( 'NONE',  ( 4.275831445896959482E-31, 1.000000000000000000, 1.224646799147353207E-16 ) ) ;
#21 = FACE_OUTER_BOUND ( 'NONE', #9, .T. ) ;
#22 = CIRCLE ( 'NONE', #250, 1.450000000000006617 ) ;
#23 = DIRECTION ( 'NONE',  ( -3.491481338843133355E-15, 4.327174794786742882E-16, -1.000000000000000000 ) ) ;
#24 = APPROVAL_ROLE ( '' ) ;
#25 = ORIENTED_EDGE ( 'NONE', *, *, #178, .F. ) ;
#26 = APPROVAL_PERSON_ORGANIZATION ( #220, #102, #16 ) ;
#27 = CARTESIAN_POINT ( 'NONE',  ( 8.374066758795123953E-14, -1.037841737986382053E-14, 23.98428044175022222 ) ) ;
#28 = ORIENTED_EDGE ( 'NONE', *, *, #160, .F. ) ;
#29 = CIRCLE ( 'NONE', #191, 1.999999999999996669 ) ;
#30 = VERTEX_POINT ( 'NONE', #50 ) ;
#31 = CARTESIAN_POINT ( 'NONE',  ( 1.842653157210502147E-15, -6.463157244495847764E-17, 0.5277568396860017330 ) ) ;
#32 = ORIENTED_EDGE ( 'NONE', *, *, #193, .F. ) ;
#33 = EDGE_CURVE ( 'NONE', #209, #209, #29, .T. ) ;
#34 = CARTESIAN_POINT ( 'NONE',  ( 0.0000000000000000000, 0.0000000000000000000, 0.0000000000000000000 ) ) ;
#35 = DATE_TIME_ROLE ( 'creation_date' ) ;
#36 = PLANE ( 'NONE',  #170 ) ;
#37 = APPLICATION_PROTOCOL_DEFINITION ( 'international standard', 'config_control_design', 1994, #14 ) ;
#38 = APPROVAL_STATUS ( 'not_yet_approved' ) ;
#39 = EDGE_CURVE ( 'NONE', #4, #4, #243, .T. ) ;
#40 = APPROVAL_ROLE ( '' ) ;
#41 = DIRECTION ( 'NONE',  ( -5.312910191413052433E-31, -1.000000000000000000, -1.495451272393795845E-16 ) ) ;
#42 = DIRECTION ( 'NONE',  ( 4.275831445896958607E-31, 1.000000000000000000, 1.224646799147353207E-16 ) ) ;
#43 = AXIS2_PLACEMENT_3D ( 'NONE', #84, #245, #67 ) ;
#44 = VERTEX_POINT ( 'NONE', #241 ) ;
#45 = DIRECTION ( 'NONE',  ( 0.0000000000000000000, 1.000000000000000000, 0.0000000000000000000 ) ) ;
#46 = EDGE_LOOP ( 'NONE', ( #210 ) ) ;
#47 = CARTESIAN_POINT ( 'NONE',  ( 2.164718430082742680E-13, 1.124819836996379248E-32, 62.00000000000000000 ) ) ;
#48 = EDGE_LOOP ( 'NONE', ( #251 ) ) ;
#49 = AXIS2_PLACEMENT_3D ( 'NONE', #47, #207, #42 ) ;
#50 = CARTESIAN_POINT ( 'NONE',  ( 7.701795505289296452E-14, 1.484074173710929090, 22.05881904510252411 ) ) ;
#51 = EDGE_LOOP ( 'NONE', ( #149 ) ) ;
#52 = AXIS2_PLACEMENT_3D ( 'NONE', #253, #229, #20 ) ;
#53 = FACE_BOUND ( 'NONE', #174, .T. ) ;
#54 = DESIGN_CONTEXT ( 'detailed design', #248, 'design' ) ;
#55 = EDGE_LOOP ( 'NONE', ( #93 ) ) ;
#56 = APPROVAL_DATE_TIME ( #19, #121 ) ;
#57 = CARTESIAN_POINT ( 'NONE',  ( 6.598899730413522673E-14, -8.178360362146944678E-15, 18.89999999999999858 ) ) ;
#58 = PERSON_AND_ORGANIZATION_ROLE ( 'classification_officer' ) ;
#59 = CIRCLE ( 'NONE', #71, 1.450000000000003286 ) ;
#60 = AXIS2_PLACEMENT_3D ( 'NONE', #208, #106, #145 ) ;
#61 = ORIENTED_EDGE ( 'NONE', *, *, #69, .T. ) ;
#62 = PRODUCT ( '960146', '960146', '', ( #75 ) ) ;
#63 = DIRECTION ( 'NONE',  ( 0.0000000000000000000, 1.000000000000000000, 0.0000000000000000000 ) ) ;
#64 = ADVANCED_BREP_SHAPE_REPRESENTATION ( '960146', ( #224, #136, #128 ), #127 ) ;
#65 =( NAMED_UNIT ( * ) PLANE_ANGLE_UNIT ( ) SI_UNIT ( $, .RADIAN. ) );
#66 = COORDINATED_UNIVERSAL_TIME_OFFSET ( 1, 0, .AHEAD. ) ;
#67 = DIRECTION ( 'NONE',  ( 1.510825004591028205E-30, 1.000000000000000000, 4.327174794786743375E-16 ) ) ;
#68 = VERTEX_POINT ( 'NONE', #228 ) ;
#69 = EDGE_CURVE ( 'NONE', #68, #68, #59, .T. ) ;
#70 = EDGE_LOOP ( 'NONE', ( #25 ) ) ;
#71 = AXIS2_PLACEMENT_3D ( 'NONE', #57, #113, #156 ) ;
#72 = DIRECTION ( 'NONE',  ( 0.0000000000000000000, 1.000000000000000000, 0.0000000000000000000 ) ) ;
#73 = ADVANCED_FACE ( 'NONE', ( #21 ), #260, .T. ) ;
#74 = DIRECTION ( 'NONE',  ( -3.491481338843133355E-15, 1.224646799147353207E-16, -1.000000000000000000 ) ) ;
#75 = MECHANICAL_CONTEXT ( 'NONE', #14, 'mechanical' ) ;
#76 = EDGE_LOOP ( 'NONE', ( #32 ) ) ;
#77 = PERSON_AND_ORGANIZATION ( #216, #79 ) ;
#78 = DIRECTION ( 'NONE',  ( 3.491481338843133355E-15, -4.327174794786742882E-16, 1.000000000000000000 ) ) ;
#79 = ORGANIZATION ( 'UNSPECIFIED', 'UNSPECIFIED', '' ) ;
#80 = ADVANCED_FACE ( 'NONE', ( #123, #256 ), #182, .T. ) ;
#81 = DIRECTION ( 'NONE',  ( 0.0000000000000000000, 1.000000000000000000, 0.0000000000000000000 ) ) ;
#82 = AXIS2_PLACEMENT_3D ( 'NONE', #99, #239, #63 ) ;
#83 = DIRECTION ( 'NONE',  ( -3.851859888774492726E-31, -1.000000000000000000, -1.084202172485510350E-16 ) ) ;
#84 = CARTESIAN_POINT ( 'NONE',  ( 0.0000000000000000000, 0.0000000000000000000, 0.0000000000000000000 ) ) ;
#85 = ORIENTED_EDGE ( 'NONE', *, *, #178, .T. ) ;
#86 = APPROVAL_PERSON_ORGANIZATION ( #98, #263, #24 ) ;
#87 = EDGE_LOOP ( 'NONE', ( #147 ) ) ;
#88 = ORIENTED_EDGE ( 'NONE', *, *, #193, .T. ) ;
#89 = FACE_OUTER_BOUND ( 'NONE', #175, .T. ) ;
#90 =( NAMED_UNIT ( * ) SI_UNIT ( $, .STERADIAN. ) SOLID_ANGLE_UNIT ( ) );
#91 = CC_DESIGN_APPROVAL ( #102, ( #124 ) ) ;
#92 = APPROVAL_STATUS ( 'not_yet_approved' ) ;
#93 = ORIENTED_EDGE ( 'NONE', *, *, #155, .T. ) ;
#94 = COORDINATED_UNIVERSAL_TIME_OFFSET ( 1, 0, .AHEAD. ) ;
#95 = ADVANCED_FACE ( 'NONE', ( #89 ), #36, .F. ) ;
#96 = CIRCLE ( 'NONE', #221, 1.450000000000003286 ) ;
#97 = EDGE_LOOP ( 'NONE', ( #61 ) ) ;
#98 = PERSON_AND_ORGANIZATION ( #216, #79 ) ;
#99 = CARTESIAN_POINT ( 'NONE',  ( 2.164718430082742680E-13, -7.592810154713590230E-15, 62.00000000000000000 ) ) ;
#100 = CIRCLE ( 'NONE', #134, 1.499999999999996447 ) ;
#101 = FACE_OUTER_BOUND ( 'NONE', #55, .T. ) ;
#102 = APPROVAL ( #38, 'UNSPECIFIED' ) ;
#103 =( LENGTH_UNIT ( ) NAMED_UNIT ( * ) SI_UNIT ( .MILLI., .METRE. ) );
#104 = CARTESIAN_POINT ( 'NONE',  ( 2.541590561669638548E-15, -8.914699647580411499E-17, 0.7279404685324105673 ) ) ;
#105 = CIRCLE ( 'NONE', #252, 1.484074173710938638 ) ;
#106 = DIRECTION ( 'NONE',  ( -3.491481338843133355E-15, 4.327174794786742882E-16, -1.000000000000000000 ) ) ;
#107 = EDGE_LOOP ( 'NONE', ( #28 ) ) ;
#108 = CC_DESIGN_DATE_AND_TIME_ASSIGNMENT ( #183, #35, ( #124 ) ) ;
#109 = EDGE_LOOP ( 'NONE', ( #203 ) ) ;
#110 = LOCAL_TIME ( 14, 56, 54.00000000000000000, #154 ) ;
#111 = ADVANCED_FACE ( 'NONE', ( #180, #118 ), #202, .T. ) ;
#112 = DIRECTION ( 'NONE',  ( -3.491481338843133355E-15, 1.224646799147353207E-16, -1.000000000000000000 ) ) ;
#113 = DIRECTION ( 'NONE',  ( -3.491481338843133355E-15, 1.224646799147353207E-16, -1.000000000000000000 ) ) ;
#114 = SECURITY_CLASSIFICATION ( '', '', #234 ) ;
#115 = CARTESIAN_POINT ( 'NONE',  ( 9.025586046307195294E-14, -1.118587918923261306E-14, 25.85030584553469524 ) ) ;
#116 = ADVANCED_FACE ( 'NONE', ( #165, #53 ), #199, .T. ) ;
#117 = DATE_AND_TIME ( #119, #205 ) ;
#118 = FACE_OUTER_BOUND ( 'NONE', #1, .T. ) ;
#119 = CALENDAR_DATE ( 2021, 13, 10 ) ;
#120 = APPROVAL_DATE_TIME ( #117, #102 ) ;
#121 = APPROVAL ( #92, 'UNSPECIFIED' ) ;
#122 = CALENDAR_DATE ( 2021, 13, 10 ) ;
#123 = FACE_BOUND ( 'NONE', #107, .T. ) ;
#124 = PRODUCT_DEFINITION ( 'UNKNOWN', '', #164, #54 ) ;
#125 = ORIENTED_EDGE ( 'NONE', *, *, #39, .T. ) ;
#126 = FACE_OUTER_BOUND ( 'NONE', #254, .T. ) ;
#127 =( GEOMETRIC_REPRESENTATION_CONTEXT ( 3 ) GLOBAL_UNCERTAINTY_ASSIGNED_CONTEXT ( ( #153 ) ) GLOBAL_UNIT_ASSIGNED_CONTEXT ( ( #103, #65, #90 ) ) REPRESENTATION_CONTEXT ( 'NONE', 'WORKASPACE' ) );
#128 = AXIS2_PLACEMENT_3D ( 'NONE', #159, #232, #259 ) ;
#129 = DIRECTION ( 'NONE',  ( -4.275831445896958607E-31, -1.000000000000000000, -1.224646799147353207E-16 ) ) ;
#130 = ORIENTED_EDGE ( 'NONE', *, *, #33, .T. ) ;
#131 = PERSON_AND_ORGANIZATION ( #216, #79 ) ;
#132 = DIRECTION ( 'NONE',  ( 0.0000000000000000000, 1.000000000000000000, 0.0000000000000000000 ) ) ;
#133 = CC_DESIGN_APPROVAL ( #263, ( #114 ) ) ;
#134 = AXIS2_PLACEMENT_3D ( 'NONE', #214, #112, #72 ) ;
#135 = FACE_OUTER_BOUND ( 'NONE', #97, .T. ) ;
#136 = MANIFOLD_SOLID_BREP ( 'Corps-Déplacer/Copier1[2]', #217 ) ;
#137 = PERSON_AND_ORGANIZATION ( #216, #79 ) ;
#138 = PRODUCT_RELATED_PRODUCT_CATEGORY ( 'detail', '', ( #62 ) ) ;
#139 = CC_DESIGN_SECURITY_CLASSIFICATION ( #114, ( #164 ) ) ;
#140 = DATE_AND_TIME ( #158, #144 ) ;
#141 = DIRECTION ( 'NONE',  ( -3.491481338843133355E-15, 1.224646799147353207E-16, -1.000000000000000000 ) ) ;
#142 = PLANE ( 'NONE',  #49 ) ;
#143 = DIRECTION ( 'NONE',  ( 3.491481338843133355E-15, -4.327174794786742882E-16, 1.000000000000000000 ) ) ;
#144 = LOCAL_TIME ( 14, 56, 54.00000000000000000, #94 ) ;
#145 = DIRECTION ( 'NONE',  ( 1.510825004591027679E-30, 1.000000000000000000, 4.327174794786742882E-16 ) ) ;
#146 = AXIS2_PLACEMENT_3D ( 'NONE', #104, #187, #83 ) ;
#147 = ORIENTED_EDGE ( 'NONE', *, *, #155, .F. ) ;
#148 = CC_DESIGN_PERSON_AND_ORGANIZATION_ASSIGNMENT ( #77, #179, ( #62 ) ) ;
#149 = ORIENTED_EDGE ( 'NONE', *, *, #33, .F. ) ;
#150 = FACE_OUTER_BOUND ( 'NONE', #87, .T. ) ;
#151 = PERSON_AND_ORGANIZATION_ROLE ( 'creator' ) ;
#152 = DIRECTION ( 'NONE',  ( 0.0000000000000000000, -1.000000000000000000, 0.0000000000000000000 ) ) ;
#153 = UNCERTAINTY_MEASURE_WITH_UNIT (LENGTH_MEASURE( 1.000000000000000082E-05 ), #103, 'distance_accuracy_value', 'NONE');
#154 = COORDINATED_UNIVERSAL_TIME_OFFSET ( 1, 0, .AHEAD. ) ;
#155 = EDGE_CURVE ( 'NONE', #7, #7, #96, .T. ) ;
#156 = DIRECTION ( 'NONE',  ( 0.0000000000000000000, -1.000000000000000000, 0.0000000000000000000 ) ) ;
#157 = TOROIDAL_SURFACE ( 'NONE', #60, 2.450000000000006839, 1.000000000000000444 ) ;
#158 = CALENDAR_DATE ( 2021, 13, 10 ) ;
#159 = CARTESIAN_POINT ( 'NONE',  ( 0.0000000000000000000, 0.0000000000000000000, 0.0000000000000000000 ) ) ;
#160 = EDGE_CURVE ( 'NONE', #30, #30, #105, .T. ) ;
#161 = COORDINATED_UNIVERSAL_TIME_OFFSET ( 1, 0, .AHEAD. ) ;
#162 = VERTEX_POINT ( 'NONE', #223 ) ;
#163 = DATE_AND_TIME ( #122, #261 ) ;
#164 = PRODUCT_DEFINITION_FORMATION_WITH_SPECIFIED_SOURCE ( 'ANY', '', #62, .NOT_KNOWN. ) ;
#165 = FACE_OUTER_BOUND ( 'NONE', #51, .T. ) ;
#166 = APPROVAL_STATUS ( 'not_yet_approved' ) ;
#167 = EDGE_CURVE ( 'NONE', #162, #162, #100, .T. ) ;
#168 = CARTESIAN_POINT ( 'NONE',  ( 6.598899730413522673E-14, -1.450000000000011502, 18.89999999999999858 ) ) ;
#169 = CARTESIAN_POINT ( 'NONE',  ( 7.611429318678030715E-14, 1.449999999999997069, 21.80000000000000071 ) ) ;
#170 = AXIS2_PLACEMENT_3D ( 'NONE', #195, #235, #129 ) ;
#171 = FACE_OUTER_BOUND ( 'NONE', #70, .T. ) ;
#172 = CC_DESIGN_PERSON_AND_ORGANIZATION_ASSIGNMENT ( #257, #58, ( #114 ) ) ;
#173 = AXIS2_PLACEMENT_3D ( 'NONE', #233, #10, #15 ) ;
#174 = EDGE_LOOP ( 'NONE', ( #13 ) ) ;
#175 = EDGE_LOOP ( 'NONE', ( #125 ) ) ;
#176 = DIRECTION ( 'NONE',  ( -3.491481338843133355E-15, 4.327174794786742882E-16, -1.000000000000000000 ) ) ;
#177 = CARTESIAN_POINT ( 'NONE',  ( 2.147261023388527077E-13, -7.531577814756222656E-15, 61.50000000000000000 ) ) ;
#178 = EDGE_CURVE ( 'NONE', #237, #237, #22, .T. ) ;
#179 = PERSON_AND_ORGANIZATION_ROLE ( 'design_owner' ) ;
#180 = FACE_OUTER_BOUND ( 'NONE', #246, .T. ) ;
#181 = COORDINATED_UNIVERSAL_TIME_OFFSET ( 1, 0, .AHEAD. ) ;
#182 = CONICAL_SURFACE ( 'NONE', #247, 2.500000000000005329, 0.2617993877991506291 ) ;
#183 = DATE_AND_TIME ( #17, #12 ) ;
#184 = DIRECTION ( 'NONE',  ( 1.510825004591028205E-30, 1.000000000000000000, 4.327174794786743375E-16 ) ) ;
#185 = CARTESIAN_POINT ( 'NONE',  ( 7.701795505289296452E-14, -9.545236577472941179E-15, 22.05881904510252411 ) ) ;
#186 = FACE_OUTER_BOUND ( 'NONE', #109, .T. ) ;
#187 = DIRECTION ( 'NONE',  ( 3.491481338843133355E-15, -1.224646799147353207E-16, 1.000000000000000000 ) ) ;
#188 = FACE_OUTER_BOUND ( 'NONE', #46, .T. ) ;
#189 = CARTESIAN_POINT ( 'NONE',  ( 2.147261023388527077E-13, 1.999999999999989120, 61.50000000000000000 ) ) ;
#190 = CLOSED_SHELL ( 'NONE', ( #111, #116, #198, #249, #80, #204, #95 ) ) ;
#191 = AXIS2_PLACEMENT_3D ( 'NONE', #177, #74, #132 ) ;
#192 = CARTESIAN_POINT ( 'NONE',  ( 7.611429318678030715E-14, -9.433241052635099167E-15, 21.80000000000000071 ) ) ;
#193 = EDGE_CURVE ( 'NONE', #44, #44, #258, .T. ) ;
#194 = APPROVAL_PERSON_ORGANIZATION ( #137, #121, #40 ) ;
#195 = CARTESIAN_POINT ( 'NONE',  ( 6.598899730413522673E-14, 1.499759782661847755E-32, 18.89999999999999858 ) ) ;
#196 = PERSON_AND_ORGANIZATION ( #216, #79 ) ;
#197 = APPLICATION_PROTOCOL_DEFINITION ( 'international standard', 'config_control_design', 1994, #248 ) ;
#198 = ADVANCED_FACE ( 'NONE', ( #186 ), #142, .F. ) ;
#199 = CONICAL_SURFACE ( 'NONE', #82, 1.499999999999996447, 0.7853981633974480570 ) ;
#200 = PERSON_AND_ORGANIZATION ( #216, #79 ) ;
#201 = CALENDAR_DATE ( 2021, 13, 10 ) ;
#202 = CYLINDRICAL_SURFACE ( 'NONE', #52, 1.999999999999994005 ) ;
#203 = ORIENTED_EDGE ( 'NONE', *, *, #167, .F. ) ;
#204 = ADVANCED_FACE ( 'NONE', ( #171, #206 ), #157, .F. ) ;
#205 = LOCAL_TIME ( 14, 56, 54.00000000000000000, #161 ) ;
#206 = FACE_OUTER_BOUND ( 'NONE', #48, .T. ) ;
#207 = DIRECTION ( 'NONE',  ( -3.491481338843133355E-15, 1.224646799147353207E-16, -1.000000000000000000 ) ) ;
#208 = CARTESIAN_POINT ( 'NONE',  ( 7.611429318678030715E-14, -9.540979117872439019E-15, 21.80000000000000071 ) ) ;
#209 = VERTEX_POINT ( 'NONE', #189 ) ;
#210 = ORIENTED_EDGE ( 'NONE', *, *, #39, .F. ) ;
#211 = AXIS2_PLACEMENT_3D ( 'NONE', #215, #218, #152 ) ;
#212 = CONICAL_SURFACE ( 'NONE', #146, 1.999999999999989120, 1.221730476396026388 ) ;
#213 = CARTESIAN_POINT ( 'NONE',  ( 1.842653157210501358E-15, -1.450000000000003286, 0.5277568396860015110 ) ) ;
#214 = CARTESIAN_POINT ( 'NONE',  ( 2.164718430082742680E-13, -7.592810154713590230E-15, 62.00000000000000000 ) ) ;
#215 = CARTESIAN_POINT ( 'NONE',  ( 6.598899730413522673E-14, -8.178360362146944678E-15, 18.89999999999999858 ) ) ;
#216 = PERSON ( 'UNSPECIFIED', 'UNSPECIFIED', 'UNSPECIFIED', ('UNSPECIFIED'), ('UNSPECIFIED'), ('UNSPECIFIED') ) ;
#217 = CLOSED_SHELL ( 'NONE', ( #242, #3, #73 ) ) ;
#218 = DIRECTION ( 'NONE',  ( -3.491481338843133355E-15, 1.224646799147353207E-16, -1.000000000000000000 ) ) ;
#219 = CC_DESIGN_PERSON_AND_ORGANIZATION_ASSIGNMENT ( #200, #236, ( #124 ) ) ;
#220 = PERSON_AND_ORGANIZATION ( #216, #79 ) ;
#221 = AXIS2_PLACEMENT_3D ( 'NONE', #31, #141, #41 ) ;
#222 = DIRECTION ( 'NONE',  ( 0.0000000000000000000, -1.000000000000000000, 0.0000000000000000000 ) ) ;
#223 = CARTESIAN_POINT ( 'NONE',  ( 2.164718430082742680E-13, 1.499999999999988676, 62.00000000000000000 ) ) ;
#224 = MANIFOLD_SOLID_BREP ( 'Corps-Déplacer/Copier1[1]', #190 ) ;
#225 = AXIS2_PLACEMENT_3D ( 'NONE', #34, #176, #184 ) ;
#226 = DIRECTION ( 'NONE',  ( 0.0000000000000000000, -1.000000000000000000, 0.0000000000000000000 ) ) ;
#227 = CC_DESIGN_APPROVAL ( #121, ( #164 ) ) ;
#228 = CARTESIAN_POINT ( 'NONE',  ( 6.598899730413522673E-14, -1.450000000000011502, 18.89999999999999858 ) ) ;
#229 = DIRECTION ( 'NONE',  ( -3.491481338843133355E-15, 1.224646799147353207E-16, -1.000000000000000000 ) ) ;
#230 = CC_DESIGN_PERSON_AND_ORGANIZATION_ASSIGNMENT ( #196, #151, ( #164 ) ) ;
#231 = CYLINDRICAL_SURFACE ( 'NONE', #225, 1.450000000000003286 ) ;
#232 = DIRECTION ( 'NONE',  ( 0.0000000000000000000, 0.0000000000000000000, 1.000000000000000000 ) ) ;
#233 = CARTESIAN_POINT ( 'NONE',  ( 6.598899730413522673E-14, 1.499759782661847755E-32, 18.89999999999999858 ) ) ;
#234 = SECURITY_CLASSIFICATION_LEVEL ( 'unclassified' ) ;
#235 = DIRECTION ( 'NONE',  ( 3.491481338843133355E-15, -1.224646799147353207E-16, 1.000000000000000000 ) ) ;
#236 = PERSON_AND_ORGANIZATION_ROLE ( 'creator' ) ;
#237 = VERTEX_POINT ( 'NONE', #169 ) ;
#238 = APPROVAL_DATE_TIME ( #163, #263 ) ;
#239 = DIRECTION ( 'NONE',  ( -3.491481338843133355E-15, 1.224646799147353207E-16, -1.000000000000000000 ) ) ;
#240 = SHAPE_DEFINITION_REPRESENTATION ( #11, #64 ) ;
#241 = CARTESIAN_POINT ( 'NONE',  ( 8.374066758795123953E-14, -2.000000000000004441, 23.98428044175022222 ) ) ;
#242 = ADVANCED_FACE ( 'NONE', ( #101 ), #212, .T. ) ;
#243 = CIRCLE ( 'NONE', #211, 1.450000000000003286 ) ;
#244 = DATE_TIME_ROLE ( 'classification_date' ) ;
#245 = DIRECTION ( 'NONE',  ( -3.491481338843133355E-15, 4.327174794786742882E-16, -1.000000000000000000 ) ) ;
#246 = EDGE_LOOP ( 'NONE', ( #88 ) ) ;
#247 = AXIS2_PLACEMENT_3D ( 'NONE', #115, #78, #222 ) ;
#248 = APPLICATION_CONTEXT ( 'configuration controlled 3d designs of mechanical parts and assemblies' ) ;
#249 = ADVANCED_FACE ( 'NONE', ( #126, #188 ), #2, .T. ) ;
#250 = AXIS2_PLACEMENT_3D ( 'NONE', #192, #23, #45 ) ;
#251 = ORIENTED_EDGE ( 'NONE', *, *, #160, .T. ) ;
#252 = AXIS2_PLACEMENT_3D ( 'NONE', #185, #262, #81 ) ;
#253 = CARTESIAN_POINT ( 'NONE',  ( 0.0000000000000000000, 0.0000000000000000000, 0.0000000000000000000 ) ) ;
#254 = EDGE_LOOP ( 'NONE', ( #85 ) ) ;
#255 = PERSON_AND_ORGANIZATION_ROLE ( 'design_supplier' ) ;
#256 = FACE_OUTER_BOUND ( 'NONE', #76, .T. ) ;
#257 = PERSON_AND_ORGANIZATION ( #216, #79 ) ;
#258 = CIRCLE ( 'NONE', #5, 1.999999999999994005 ) ;
#259 = DIRECTION ( 'NONE',  ( 1.000000000000000000, 0.0000000000000000000, 0.0000000000000000000 ) ) ;
#260 = PLANE ( 'NONE',  #173 ) ;
#261 = LOCAL_TIME ( 14, 56, 54.00000000000000000, #66 ) ;
#262 = DIRECTION ( 'NONE',  ( -3.491481338843133355E-15, 4.327174794786742882E-16, -1.000000000000000000 ) ) ;
#263 = APPROVAL ( #166, 'UNSPECIFIED' ) ;
ENDSEC;
END-ISO-10303-21;
