ISO-10303-21;
HEADER;
FILE_DESCRIPTION (( 'STEP AP203' ),
    '1' );
FILE_NAME ('960145.step',
    '2021-10-13T12:56:53',
    ( '' ),
    ( '' ),
    'SwSTEP 2.0',
    'SolidWorks 2019',
    '' );
FILE_SCHEMA (( 'CONFIG_CONTROL_DESIGN' ));
ENDSEC;

DATA;
#1 = LOCAL_TIME ( 14, 56, 53.00000000000000000, #36 ) ;
#2 = APPROVAL_DATE_TIME ( #34, #101 ) ;
#3 = AXIS2_PLACEMENT_3D ( 'NONE', #7, #105, #44 ) ;
#4 = CC_DESIGN_PERSON_AND_ORGANIZATION_ASSIGNMENT ( #123, #120, ( #227 ) ) ;
#5 = DIRECTION ( 'NONE',  ( 0.0000000000000000000, -1.000000000000000000, 0.0000000000000000000 ) ) ;
#6 = EDGE_LOOP ( 'NONE', ( #95 ) ) ;
#7 = CARTESIAN_POINT ( 'NONE',  ( 2.541590561669638548E-15, -8.914699647580411499E-17, 0.7279404685324105673 ) ) ;
#8 = CC_DESIGN_PERSON_AND_ORGANIZATION_ASSIGNMENT ( #142, #117, ( #223 ) ) ;
#9 = FACE_OUTER_BOUND ( 'NONE', #145, .T. ) ;
#10 = EDGE_CURVE ( 'NONE', #83, #83, #75, .T. ) ;
#11 = MECHANICAL_CONTEXT ( 'NONE', #129, 'mechanical' ) ;
#12 = VERTEX_POINT ( 'NONE', #110 ) ;
#13 = VERTEX_POINT ( 'NONE', #112 ) ;
#14 = FACE_OUTER_BOUND ( 'NONE', #220, .T. ) ;
#15 = EDGE_LOOP ( 'NONE', ( #38 ) ) ;
#16 = EDGE_LOOP ( 'NONE', ( #71 ) ) ;
#17 = DATE_TIME_ROLE ( 'creation_date' ) ;
#18 = CALENDAR_DATE ( 2021, 13, 10 ) ;
#19 = APPROVAL_STATUS ( 'not_yet_approved' ) ;
#20 = AXIS2_PLACEMENT_3D ( 'NONE', #224, #107, #207 ) ;
#21 = ORIENTED_EDGE ( 'NONE', *, *, #10, .F. ) ;
#22 = CC_DESIGN_PERSON_AND_ORGANIZATION_ASSIGNMENT ( #211, #68, ( #241 ) ) ;
#23 = FACE_BOUND ( 'NONE', #16, .T. ) ;
#24 = FACE_OUTER_BOUND ( 'NONE', #118, .T. ) ;
#25 = FACE_OUTER_BOUND ( 'NONE', #15, .T. ) ;
#26 = CIRCLE ( 'NONE', #226, 1.434074173710938371 ) ;
#27 = EDGE_LOOP ( 'NONE', ( #73 ) ) ;
#28 = AXIS2_PLACEMENT_3D ( 'NONE', #60, #147, #249 ) ;
#29 = CLOSED_SHELL ( 'NONE', ( #58, #109, #262 ) ) ;
#30 = PLANE ( 'NONE',  #195 ) ;
#31 = CIRCLE ( 'NONE', #119, 1.400000000000003242 ) ;
#32 = DIRECTION ( 'NONE',  ( 0.0000000000000000000, -1.000000000000000000, 0.0000000000000000000 ) ) ;
#33 = APPROVAL_ROLE ( '' ) ;
#34 = DATE_AND_TIME ( #261, #125 ) ;
#35 = LOCAL_TIME ( 14, 56, 53.00000000000000000, #94 ) ;
#36 = COORDINATED_UNIVERSAL_TIME_OFFSET ( 1, 0, .AHEAD. ) ;
#37 = CALENDAR_DATE ( 2021, 13, 10 ) ;
#38 = ORIENTED_EDGE ( 'NONE', *, *, #204, .F. ) ;
#39 = AXIS2_PLACEMENT_3D ( 'NONE', #199, #230, #40 ) ;
#40 = DIRECTION ( 'NONE',  ( 1.510825004591027855E-30, 1.000000000000000000, 4.327174794786742389E-16 ) ) ;
#41 = DIRECTION ( 'NONE',  ( -3.491481338843133355E-15, 4.327174794786742882E-16, -1.000000000000000000 ) ) ;
#42 = DIRECTION ( 'NONE',  ( -3.491481338843133355E-15, 1.224646799147353207E-16, -1.000000000000000000 ) ) ;
#43 = DESIGN_CONTEXT ( 'detailed design', #255, 'design' ) ;
#44 = DIRECTION ( 'NONE',  ( -3.851859888774492726E-31, -1.000000000000000000, -1.084202172485510350E-16 ) ) ;
#45 = CARTESIAN_POINT ( 'NONE',  ( 7.332110811570580046E-14, -9.107298248878237246E-15, 21.00000000000000000 ) ) ;
#46 = PLANE ( 'NONE',  #191 ) ;
#47 = CC_DESIGN_PERSON_AND_ORGANIZATION_ASSIGNMENT ( #186, #209, ( #227 ) ) ;
#48 = CARTESIAN_POINT ( 'NONE',  ( 2.164718430082742680E-13, 1.499999999999988676, 62.00000000000000000 ) ) ;
#49 = DIRECTION ( 'NONE',  ( -4.275831445896958607E-31, -1.000000000000000000, -1.224646799147353207E-16 ) ) ;
#50 =( NAMED_UNIT ( * ) SI_UNIT ( $, .STERADIAN. ) SOLID_ANGLE_UNIT ( ) );
#51 = PRODUCT_DEFINITION_SHAPE ( 'NONE', 'NONE',  #223 ) ;
#52 = CALENDAR_DATE ( 2021, 13, 10 ) ;
#53 = CC_DESIGN_DATE_AND_TIME_ASSIGNMENT ( #215, #166, ( #196 ) ) ;
#54 = SECURITY_CLASSIFICATION_LEVEL ( 'unclassified' ) ;
#55 = DATE_AND_TIME ( #18, #139 ) ;
#56 = AXIS2_PLACEMENT_3D ( 'NONE', #206, #113, #159 ) ;
#57 = FACE_OUTER_BOUND ( 'NONE', #122, .T. ) ;
#58 = ADVANCED_FACE ( 'NONE', ( #194 ), #93, .T. ) ;
#59 = DIRECTION ( 'NONE',  ( -3.491481338843133355E-15, 1.224646799147353207E-16, -1.000000000000000000 ) ) ;
#60 = CARTESIAN_POINT ( 'NONE',  ( 1.779113393168760789E-15, -6.240289753306336367E-17, 0.5095583279726912940 ) ) ;
#61 = CARTESIAN_POINT ( 'NONE',  ( 6.354496036694503969E-14, -7.875458126511872361E-15, 18.19999999999999929 ) ) ;
#62 = ADVANCED_FACE ( 'NONE', ( #9, #80 ), #138, .T. ) ;
#63 = FACE_OUTER_BOUND ( 'NONE', #167, .T. ) ;
#64 = CARTESIAN_POINT ( 'NONE',  ( 7.422476998181845784E-14, 1.434074173710929268, 21.25881904510252340 ) ) ;
#65 = DIRECTION ( 'NONE',  ( 0.0000000000000000000, 0.0000000000000000000, 1.000000000000000000 ) ) ;
#66 = VERTEX_POINT ( 'NONE', #64 ) ;
#67 = VERTEX_POINT ( 'NONE', #48 ) ;
#68 = PERSON_AND_ORGANIZATION_ROLE ( 'design_owner' ) ;
#69 = ADVANCED_BREP_SHAPE_REPRESENTATION ( '960145', ( #128, #222, #82 ), #146 ) ;
#70 = CIRCLE ( 'NONE', #56, 1.400000000000006350 ) ;
#71 = ORIENTED_EDGE ( 'NONE', *, *, #85, .F. ) ;
#72 = PERSON_AND_ORGANIZATION_ROLE ( 'classification_officer' ) ;
#73 = ORIENTED_EDGE ( 'NONE', *, *, #213, .F. ) ;
#74 = DATE_AND_TIME ( #52, #35 ) ;
#75 = CIRCLE ( 'NONE', #28, 1.400000000000003242 ) ;
#76 = DIRECTION ( 'NONE',  ( 0.0000000000000000000, -1.000000000000000000, 0.0000000000000000000 ) ) ;
#77 = AXIS2_PLACEMENT_3D ( 'NONE', #106, #59, #219 ) ;
#78 = CARTESIAN_POINT ( 'NONE',  ( 6.354496036694503969E-14, -7.875458126511872361E-15, 18.19999999999999929 ) ) ;
#79 = DIRECTION ( 'NONE',  ( 1.510825004591027855E-30, 1.000000000000000000, 4.327174794786742882E-16 ) ) ;
#80 = FACE_BOUND ( 'NONE', #210, .T. ) ;
#81 = FACE_OUTER_BOUND ( 'NONE', #173, .T. ) ;
#82 = AXIS2_PLACEMENT_3D ( 'NONE', #84, #65, #86 ) ;
#83 = VERTEX_POINT ( 'NONE', #183 ) ;
#84 = CARTESIAN_POINT ( 'NONE',  ( 0.0000000000000000000, 0.0000000000000000000, 0.0000000000000000000 ) ) ;
#85 = EDGE_CURVE ( 'NONE', #66, #66, #26, .T. ) ;
#86 = DIRECTION ( 'NONE',  ( 1.000000000000000000, 0.0000000000000000000, 0.0000000000000000000 ) ) ;
#87 = CLOSED_SHELL ( 'NONE', ( #156, #62, #244, #171, #177, #165, #200 ) ) ;
#88 = UNCERTAINTY_MEASURE_WITH_UNIT (LENGTH_MEASURE( 1.000000000000000082E-05 ), #240, 'distance_accuracy_value', 'NONE');
#89 = DIRECTION ( 'NONE',  ( -4.275831445896958607E-31, -1.000000000000000000, -1.224646799147353207E-16 ) ) ;
#90 = FACE_OUTER_BOUND ( 'NONE', #248, .T. ) ;
#91 = APPROVAL_DATE_TIME ( #245, #228 ) ;
#92 = ORIENTED_EDGE ( 'NONE', *, *, #149, .F. ) ;
#93 = CONICAL_SURFACE ( 'NONE', #3, 1.999999999999989120, 1.221730476396026388 ) ;
#94 = COORDINATED_UNIVERSAL_TIME_OFFSET ( 1, 0, .AHEAD. ) ;
#95 = ORIENTED_EDGE ( 'NONE', *, *, #10, .T. ) ;
#96 = EDGE_CURVE ( 'NONE', #185, #185, #246, .T. ) ;
#97 = APPROVAL_DATE_TIME ( #55, #160 ) ;
#98 = AXIS2_PLACEMENT_3D ( 'NONE', #45, #41, #79 ) ;
#99 = EDGE_LOOP ( 'NONE', ( #188 ) ) ;
#100 = FACE_OUTER_BOUND ( 'NONE', #27, .T. ) ;
#101 = APPROVAL ( #170, 'UNSPECIFIED' ) ;
#102 = CYLINDRICAL_SURFACE ( 'NONE', #39, 1.400000000000003242 ) ;
#103 = AXIS2_PLACEMENT_3D ( 'NONE', #202, #225, #32 ) ;
#104 = CARTESIAN_POINT ( 'NONE',  ( 8.811419467950951633E-14, -1.092045138658655146E-14, 25.23690838591313934 ) ) ;
#105 = DIRECTION ( 'NONE',  ( 3.491481338843133355E-15, -1.224646799147353207E-16, 1.000000000000000000 ) ) ;
#106 = CARTESIAN_POINT ( 'NONE',  ( 0.0000000000000000000, 0.0000000000000000000, 0.0000000000000000000 ) ) ;
#107 = DIRECTION ( 'NONE',  ( -3.491481338843133355E-15, 1.224646799147353207E-16, -1.000000000000000000 ) ) ;
#108 = CONICAL_SURFACE ( 'NONE', #253, 2.500000000000004885, 0.2617993877991504625 ) ;
#109 = ADVANCED_FACE ( 'NONE', ( #250, #81 ), #180, .T. ) ;
#110 = CARTESIAN_POINT ( 'NONE',  ( 6.354496036694503969E-14, -1.400000000000011013, 18.19999999999999929 ) ) ;
#111 = FACE_OUTER_BOUND ( 'NONE', #143, .T. ) ;
#112 = CARTESIAN_POINT ( 'NONE',  ( 7.332110811570580046E-14, 1.399999999999997247, 21.00000000000000000 ) ) ;
#113 = DIRECTION ( 'NONE',  ( -3.491481338843133355E-15, 4.327174794786742882E-16, -1.000000000000000000 ) ) ;
#114 = EDGE_CURVE ( 'NONE', #12, #12, #31, .T. ) ;
#115 = PERSON ( 'UNSPECIFIED', 'UNSPECIFIED', 'UNSPECIFIED', ('UNSPECIFIED'), ('UNSPECIFIED'), ('UNSPECIFIED') ) ;
#116 = ORIENTED_EDGE ( 'NONE', *, *, #149, .T. ) ;
#117 = PERSON_AND_ORGANIZATION_ROLE ( 'creator' ) ;
#118 = EDGE_LOOP ( 'NONE', ( #172 ) ) ;
#119 = AXIS2_PLACEMENT_3D ( 'NONE', #61, #232, #76 ) ;
#120 = PERSON_AND_ORGANIZATION_ROLE ( 'design_supplier' ) ;
#121 = PERSON_AND_ORGANIZATION ( #115, #157 ) ;
#122 = EDGE_LOOP ( 'NONE', ( #124 ) ) ;
#123 = PERSON_AND_ORGANIZATION ( #115, #157 ) ;
#124 = ORIENTED_EDGE ( 'NONE', *, *, #213, .T. ) ;
#125 = LOCAL_TIME ( 14, 56, 53.00000000000000000, #263 ) ;
#126 = DIRECTION ( 'NONE',  ( 0.0000000000000000000, 1.000000000000000000, 0.0000000000000000000 ) ) ;
#127 = DIRECTION ( 'NONE',  ( -3.491481338843133355E-15, 1.224646799147353207E-16, -1.000000000000000000 ) ) ;
#128 = MANIFOLD_SOLID_BREP ( 'Corps-Déplacer/Copier1[1]', #87 ) ;
#129 = APPLICATION_CONTEXT ( 'configuration controlled 3d designs of mechanical parts and assemblies' ) ;
#130 = DIRECTION ( 'NONE',  ( -3.491481338843133355E-15, 1.224646799147353207E-16, -1.000000000000000000 ) ) ;
#131 = CC_DESIGN_PERSON_AND_ORGANIZATION_ASSIGNMENT ( #162, #72, ( #196 ) ) ;
#132 = EDGE_LOOP ( 'NONE', ( #214 ) ) ;
#133 = FACE_OUTER_BOUND ( 'NONE', #99, .T. ) ;
#134 = CIRCLE ( 'NONE', #103, 1.999999999999994005 ) ;
#135 = CC_DESIGN_APPROVAL ( #160, ( #196 ) ) ;
#136 = CARTESIAN_POINT ( 'NONE',  ( 6.354496036694503969E-14, -1.400000000000011013, 18.19999999999999929 ) ) ;
#137 =( NAMED_UNIT ( * ) PLANE_ANGLE_UNIT ( ) SI_UNIT ( $, .RADIAN. ) );
#138 = CONICAL_SURFACE ( 'NONE', #237, 1.499999999999996447, 0.7853981633974480570 ) ;
#139 = LOCAL_TIME ( 14, 56, 53.00000000000000000, #212 ) ;
#140 = LOCAL_TIME ( 14, 56, 53.00000000000000000, #164 ) ;
#141 = APPROVAL_ROLE ( '' ) ;
#142 = PERSON_AND_ORGANIZATION ( #115, #157 ) ;
#143 = EDGE_LOOP ( 'NONE', ( #92 ) ) ;
#144 = CC_DESIGN_DATE_AND_TIME_ASSIGNMENT ( #74, #17, ( #223 ) ) ;
#145 = EDGE_LOOP ( 'NONE', ( #208 ) ) ;
#146 =( GEOMETRIC_REPRESENTATION_CONTEXT ( 3 ) GLOBAL_UNCERTAINTY_ASSIGNED_CONTEXT ( ( #88 ) ) GLOBAL_UNIT_ASSIGNED_CONTEXT ( ( #240, #137, #50 ) ) REPRESENTATION_CONTEXT ( 'NONE', 'WORKASPACE' ) );
#147 = DIRECTION ( 'NONE',  ( -3.491481338843133355E-15, 1.224646799147353207E-16, -1.000000000000000000 ) ) ;
#148 = EDGE_LOOP ( 'NONE', ( #150 ) ) ;
#149 = EDGE_CURVE ( 'NONE', #67, #67, #169, .T. ) ;
#150 = ORIENTED_EDGE ( 'NONE', *, *, #96, .T. ) ;
#151 = AXIS2_PLACEMENT_3D ( 'NONE', #78, #130, #5 ) ;
#152 = CC_DESIGN_APPROVAL ( #228, ( #227 ) ) ;
#153 = CYLINDRICAL_SURFACE ( 'NONE', #77, 1.999999999999994005 ) ;
#154 = DIRECTION ( 'NONE',  ( -3.491481338843133355E-15, 1.224646799147353207E-16, -1.000000000000000000 ) ) ;
#155 = DIRECTION ( 'NONE',  ( 0.0000000000000000000, -1.000000000000000000, 0.0000000000000000000 ) ) ;
#156 = ADVANCED_FACE ( 'NONE', ( #57, #63 ), #153, .T. ) ;
#157 = ORGANIZATION ( 'UNSPECIFIED', 'UNSPECIFIED', '' ) ;
#158 = CARTESIAN_POINT ( 'NONE',  ( 6.354496036694503969E-14, 1.499759782661847755E-32, 18.19999999999999929 ) ) ;
#159 = DIRECTION ( 'NONE',  ( 0.0000000000000000000, 1.000000000000000000, 0.0000000000000000000 ) ) ;
#160 = APPROVAL ( #19, 'UNSPECIFIED' ) ;
#161 = CARTESIAN_POINT ( 'NONE',  ( 8.159900180438880292E-14, -2.000000000000003997, 23.37088298212866988 ) ) ;
#162 = PERSON_AND_ORGANIZATION ( #115, #157 ) ;
#163 = CC_DESIGN_APPROVAL ( #101, ( #223 ) ) ;
#164 = COORDINATED_UNIVERSAL_TIME_OFFSET ( 1, 0, .AHEAD. ) ;
#165 = ADVANCED_FACE ( 'NONE', ( #25, #235 ), #205, .F. ) ;
#166 = DATE_TIME_ROLE ( 'classification_date' ) ;
#167 = EDGE_LOOP ( 'NONE', ( #260 ) ) ;
#168 = APPROVAL_ROLE ( '' ) ;
#169 = CIRCLE ( 'NONE', #175, 1.499999999999996447 ) ;
#170 = APPROVAL_STATUS ( 'not_yet_approved' ) ;
#171 = ADVANCED_FACE ( 'NONE', ( #133, #24 ), #102, .T. ) ;
#172 = ORIENTED_EDGE ( 'NONE', *, *, #114, .F. ) ;
#173 = EDGE_LOOP ( 'NONE', ( #21 ) ) ;
#174 = CC_DESIGN_SECURITY_CLASSIFICATION ( #196, ( #227 ) ) ;
#175 = AXIS2_PLACEMENT_3D ( 'NONE', #233, #42, #218 ) ;
#176 = DIRECTION ( 'NONE',  ( 0.0000000000000000000, 1.000000000000000000, 0.0000000000000000000 ) ) ;
#177 = ADVANCED_FACE ( 'NONE', ( #23, #100 ), #108, .T. ) ;
#178 = DIRECTION ( 'NONE',  ( 3.491481338843133355E-15, -4.327174794786742882E-16, 1.000000000000000000 ) ) ;
#179 = DIRECTION ( 'NONE',  ( -3.491481338843133355E-15, 4.327174794786742882E-16, -1.000000000000000000 ) ) ;
#180 = CYLINDRICAL_SURFACE ( 'NONE', #231, 1.400000000000003242 ) ;
#181 = PRODUCT_RELATED_PRODUCT_CATEGORY ( 'detail', '', ( #241 ) ) ;
#182 = APPLICATION_PROTOCOL_DEFINITION ( 'international standard', 'config_control_design', 1994, #129 ) ;
#183 = CARTESIAN_POINT ( 'NONE',  ( 1.779113393168760000E-15, -1.400000000000003242, 0.5095583279726910719 ) ) ;
#184 = DIRECTION ( 'NONE',  ( 3.491481338843133355E-15, -1.224646799147353207E-16, 1.000000000000000000 ) ) ;
#185 = VERTEX_POINT ( 'NONE', #136 ) ;
#186 = PERSON_AND_ORGANIZATION ( #115, #157 ) ;
#187 = AXIS2_PLACEMENT_3D ( 'NONE', #203, #184, #89 ) ;
#188 = ORIENTED_EDGE ( 'NONE', *, *, #204, .T. ) ;
#189 = APPLICATION_PROTOCOL_DEFINITION ( 'international standard', 'config_control_design', 1994, #255 ) ;
#190 = CALENDAR_DATE ( 2021, 13, 10 ) ;
#191 = AXIS2_PLACEMENT_3D ( 'NONE', #158, #238, #49 ) ;
#192 = PERSON_AND_ORGANIZATION ( #115, #157 ) ;
#193 = ORIENTED_EDGE ( 'NONE', *, *, #114, .T. ) ;
#194 = FACE_OUTER_BOUND ( 'NONE', #6, .T. ) ;
#195 = AXIS2_PLACEMENT_3D ( 'NONE', #236, #154, #239 ) ;
#196 = SECURITY_CLASSIFICATION ( '', '', #54 ) ;
#197 = APPROVAL_PERSON_ORGANIZATION ( #247, #160, #33 ) ;
#198 = CARTESIAN_POINT ( 'NONE',  ( 0.0000000000000000000, 0.0000000000000000000, 0.0000000000000000000 ) ) ;
#199 = CARTESIAN_POINT ( 'NONE',  ( 0.0000000000000000000, 0.0000000000000000000, 0.0000000000000000000 ) ) ;
#200 = ADVANCED_FACE ( 'NONE', ( #14 ), #46, .F. ) ;
#201 = CARTESIAN_POINT ( 'NONE',  ( 2.147261023388527077E-13, 1.999999999999989120, 61.50000000000000000 ) ) ;
#202 = CARTESIAN_POINT ( 'NONE',  ( 8.159900180438880292E-14, -1.011298957721776051E-14, 23.37088298212866988 ) ) ;
#203 = CARTESIAN_POINT ( 'NONE',  ( 6.354496036694503969E-14, 1.499759782661847755E-32, 18.19999999999999929 ) ) ;
#204 = EDGE_CURVE ( 'NONE', #13, #13, #70, .T. ) ;
#205 = TOROIDAL_SURFACE ( 'NONE', #98, 2.400000000000006573, 1.000000000000000444 ) ;
#206 = CARTESIAN_POINT ( 'NONE',  ( 7.332110811570580046E-14, -9.087067069052160052E-15, 21.00000000000000000 ) ) ;
#207 = DIRECTION ( 'NONE',  ( 0.0000000000000000000, 1.000000000000000000, 0.0000000000000000000 ) ) ;
#208 = ORIENTED_EDGE ( 'NONE', *, *, #234, .F. ) ;
#209 = PERSON_AND_ORGANIZATION_ROLE ( 'creator' ) ;
#210 = EDGE_LOOP ( 'NONE', ( #116 ) ) ;
#211 = PERSON_AND_ORGANIZATION ( #115, #157 ) ;
#212 = COORDINATED_UNIVERSAL_TIME_OFFSET ( 1, 0, .AHEAD. ) ;
#213 = EDGE_CURVE ( 'NONE', #258, #258, #134, .T. ) ;
#214 = ORIENTED_EDGE ( 'NONE', *, *, #85, .T. ) ;
#215 = DATE_AND_TIME ( #37, #1 ) ;
#216 = ORIENTED_EDGE ( 'NONE', *, *, #96, .F. ) ;
#217 = CARTESIAN_POINT ( 'NONE',  ( 2.164718430082742680E-13, -7.592810154713590230E-15, 62.00000000000000000 ) ) ;
#218 = DIRECTION ( 'NONE',  ( 0.0000000000000000000, 1.000000000000000000, 0.0000000000000000000 ) ) ;
#219 = DIRECTION ( 'NONE',  ( 4.275831445896959482E-31, 1.000000000000000000, 1.224646799147353207E-16 ) ) ;
#220 = EDGE_LOOP ( 'NONE', ( #193 ) ) ;
#221 = VERTEX_POINT ( 'NONE', #201 ) ;
#222 = MANIFOLD_SOLID_BREP ( 'Corps-Déplacer/Copier1[2]', #29 ) ;
#223 = PRODUCT_DEFINITION ( 'UNKNOWN', '', #227, #43 ) ;
#224 = CARTESIAN_POINT ( 'NONE',  ( 2.147261023388527077E-13, -7.531577814756222656E-15, 61.50000000000000000 ) ) ;
#225 = DIRECTION ( 'NONE',  ( 3.491481338843133355E-15, -4.327174794786742882E-16, 1.000000000000000000 ) ) ;
#226 = AXIS2_PLACEMENT_3D ( 'NONE', #251, #254, #126 ) ;
#227 = PRODUCT_DEFINITION_FORMATION_WITH_SPECIFIED_SOURCE ( 'ANY', '', #241, .NOT_KNOWN. ) ;
#228 = APPROVAL ( #229, 'UNSPECIFIED' ) ;
#229 = APPROVAL_STATUS ( 'not_yet_approved' ) ;
#230 = DIRECTION ( 'NONE',  ( -3.491481338843133355E-15, 4.327174794786742882E-16, -1.000000000000000000 ) ) ;
#231 = AXIS2_PLACEMENT_3D ( 'NONE', #198, #179, #252 ) ;
#232 = DIRECTION ( 'NONE',  ( -3.491481338843133355E-15, 1.224646799147353207E-16, -1.000000000000000000 ) ) ;
#233 = CARTESIAN_POINT ( 'NONE',  ( 2.164718430082742680E-13, -7.592810154713590230E-15, 62.00000000000000000 ) ) ;
#234 = EDGE_CURVE ( 'NONE', #221, #221, #259, .T. ) ;
#235 = FACE_OUTER_BOUND ( 'NONE', #132, .T. ) ;
#236 = CARTESIAN_POINT ( 'NONE',  ( 2.164718430082742680E-13, 1.124819836996379248E-32, 62.00000000000000000 ) ) ;
#237 = AXIS2_PLACEMENT_3D ( 'NONE', #217, #127, #176 ) ;
#238 = DIRECTION ( 'NONE',  ( 3.491481338843133355E-15, -1.224646799147353207E-16, 1.000000000000000000 ) ) ;
#239 = DIRECTION ( 'NONE',  ( 4.275831445896958607E-31, 1.000000000000000000, 1.224646799147353207E-16 ) ) ;
#240 =( LENGTH_UNIT ( ) NAMED_UNIT ( * ) SI_UNIT ( .MILLI., .METRE. ) );
#241 = PRODUCT ( '960145', '960145', '', ( #11 ) ) ;
#242 = APPROVAL_PERSON_ORGANIZATION ( #121, #101, #141 ) ;
#243 = SHAPE_DEFINITION_REPRESENTATION ( #51, #69 ) ;
#244 = ADVANCED_FACE ( 'NONE', ( #111 ), #30, .F. ) ;
#245 = DATE_AND_TIME ( #190, #140 ) ;
#246 = CIRCLE ( 'NONE', #151, 1.400000000000003242 ) ;
#247 = PERSON_AND_ORGANIZATION ( #115, #157 ) ;
#248 = EDGE_LOOP ( 'NONE', ( #216 ) ) ;
#249 = DIRECTION ( 'NONE',  ( -5.502656983963518247E-31, -1.000000000000000000, -1.548860246407859885E-16 ) ) ;
#250 = FACE_OUTER_BOUND ( 'NONE', #148, .T. ) ;
#251 = CARTESIAN_POINT ( 'NONE',  ( 7.422476998181845784E-14, -9.199062593890000486E-15, 21.25881904510252340 ) ) ;
#252 = DIRECTION ( 'NONE',  ( 1.510825004591027855E-30, 1.000000000000000000, 4.327174794786742389E-16 ) ) ;
#253 = AXIS2_PLACEMENT_3D ( 'NONE', #104, #178, #155 ) ;
#254 = DIRECTION ( 'NONE',  ( -3.491481338843133355E-15, 4.327174794786742882E-16, -1.000000000000000000 ) ) ;
#255 = APPLICATION_CONTEXT ( 'configuration controlled 3d designs of mechanical parts and assemblies' ) ;
#256 = APPROVAL_PERSON_ORGANIZATION ( #192, #228, #168 ) ;
#257 = PLANE ( 'NONE',  #187 ) ;
#258 = VERTEX_POINT ( 'NONE', #161 ) ;
#259 = CIRCLE ( 'NONE', #20, 1.999999999999996669 ) ;
#260 = ORIENTED_EDGE ( 'NONE', *, *, #234, .T. ) ;
#261 = CALENDAR_DATE ( 2021, 13, 10 ) ;
#262 = ADVANCED_FACE ( 'NONE', ( #90 ), #257, .T. ) ;
#263 = COORDINATED_UNIVERSAL_TIME_OFFSET ( 1, 0, .AHEAD. ) ;
ENDSEC;
END-ISO-10303-21;
