ISO-10303-21;
HEADER;
FILE_DESCRIPTION (( 'STEP AP203' ),
    '1' );
FILE_NAME ('960144.step',
    '2021-10-13T12:56:52',
    ( '' ),
    ( '' ),
    'SwSTEP 2.0',
    'SolidWorks 2019',
    '' );
FILE_SCHEMA (( 'CONFIG_CONTROL_DESIGN' ));
ENDSEC;

DATA;
#1 = DIRECTION ( 'NONE',  ( 1.510825004591027855E-30, 1.000000000000000000, 4.327174794786742389E-16 ) ) ;
#2 = CC_DESIGN_DATE_AND_TIME_ASSIGNMENT ( #156, #97, ( #52 ) ) ;
#3 =( GEOMETRIC_REPRESENTATION_CONTEXT ( 3 ) GLOBAL_UNCERTAINTY_ASSIGNED_CONTEXT ( ( #162 ) ) GLOBAL_UNIT_ASSIGNED_CONTEXT ( ( #254, #58, #75 ) ) REPRESENTATION_CONTEXT ( 'NONE', 'WORKASPACE' ) );
#4 = AXIS2_PLACEMENT_3D ( 'NONE', #90, #255, #77 ) ;
#5 = VERTEX_POINT ( 'NONE', #250 ) ;
#6 = CC_DESIGN_PERSON_AND_ORGANIZATION_ASSIGNMENT ( #252, #32, ( #153 ) ) ;
#7 = VERTEX_POINT ( 'NONE', #88 ) ;
#8 = ADVANCED_BREP_SHAPE_REPRESENTATION ( '960144', ( #214, #33, #249 ), #3 ) ;
#9 = VERTEX_POINT ( 'NONE', #236 ) ;
#10 = COORDINATED_UNIVERSAL_TIME_OFFSET ( 1, 0, .AHEAD. ) ;
#11 = EDGE_CURVE ( 'NONE', #145, #145, #125, .T. ) ;
#12 = APPROVAL_STATUS ( 'not_yet_approved' ) ;
#13 = AXIS2_PLACEMENT_3D ( 'NONE', #247, #70, #107 ) ;
#14 = COORDINATED_UNIVERSAL_TIME_OFFSET ( 1, 0, .AHEAD. ) ;
#15 = EDGE_CURVE ( 'NONE', #5, #5, #163, .T. ) ;
#16 = CYLINDRICAL_SURFACE ( 'NONE', #177, 1.350000000000003419 ) ;
#17 = APPROVAL_STATUS ( 'not_yet_approved' ) ;
#18 = DIRECTION ( 'NONE',  ( -4.279844320860513511E-31, -1.000000000000000000, -1.606225440719261683E-16 ) ) ;
#19 = FACE_OUTER_BOUND ( 'NONE', #49, .T. ) ;
#20 = CARTESIAN_POINT ( 'NONE',  ( 0.0000000000000000000, 0.0000000000000000000, 0.0000000000000000000 ) ) ;
#21 = FACE_OUTER_BOUND ( 'NONE', #251, .T. ) ;
#22 = PLANE ( 'NONE',  #134 ) ;
#23 = ORIENTED_EDGE ( 'NONE', *, *, #36, .T. ) ;
#24 = ORIENTED_EDGE ( 'NONE', *, *, #106, .F. ) ;
#25 = EDGE_LOOP ( 'NONE', ( #71 ) ) ;
#26 = DIRECTION ( 'NONE',  ( 0.0000000000000000000, 1.000000000000000000, 0.0000000000000000000 ) ) ;
#27 = DIRECTION ( 'NONE',  ( 1.000000000000000000, 0.0000000000000000000, 0.0000000000000000000 ) ) ;
#28 = CARTESIAN_POINT ( 'NONE',  ( 7.087707117851561342E-14, -8.673617379884035472E-15, 20.30000000000000071 ) ) ;
#29 = VERTEX_POINT ( 'NONE', #212 ) ;
#30 = ADVANCED_FACE ( 'NONE', ( #38, #121 ), #16, .T. ) ;
#31 = MECHANICAL_CONTEXT ( 'NONE', #123, 'mechanical' ) ;
#32 = PERSON_AND_ORGANIZATION_ROLE ( 'design_owner' ) ;
#33 = MANIFOLD_SOLID_BREP ( 'Corps-Déplacer/Copier1[2]', #158 ) ;
#34 = APPROVAL_ROLE ( '' ) ;
#35 = DIRECTION ( 'NONE',  ( 3.491481338843133355E-15, -1.224646799147353207E-16, 1.000000000000000000 ) ) ;
#36 = EDGE_CURVE ( 'NONE', #196, #196, #55, .T. ) ;
#37 = AXIS2_PLACEMENT_3D ( 'NONE', #211, #101, #83 ) ;
#38 = FACE_OUTER_BOUND ( 'NONE', #131, .T. ) ;
#39 = SHAPE_DEFINITION_REPRESENTATION ( #132, #8 ) ;
#40 = CARTESIAN_POINT ( 'NONE',  ( 6.145007156363915967E-14, 1.499759782661847755E-32, 17.60000000000000142 ) ) ;
#41 = PERSON_AND_ORGANIZATION ( #104, #98 ) ;
#42 = LOCAL_TIME ( 14, 56, 52.00000000000000000, #118 ) ;
#43 = FACE_OUTER_BOUND ( 'NONE', #85, .T. ) ;
#44 = APPROVAL_PERSON_ORGANIZATION ( #41, #161, #120 ) ;
#45 = CARTESIAN_POINT ( 'NONE',  ( 1.715573629127019628E-15, -6.017422262116824970E-17, 0.4913598162593809660 ) ) ;
#46 = FACE_OUTER_BOUND ( 'NONE', #241, .T. ) ;
#47 = DIRECTION ( 'NONE',  ( -4.275831445896958607E-31, -1.000000000000000000, -1.224646799147353207E-16 ) ) ;
#48 = EDGE_LOOP ( 'NONE', ( #66 ) ) ;
#49 = EDGE_LOOP ( 'NONE', ( #65 ) ) ;
#50 = DIRECTION ( 'NONE',  ( -3.491481338843133355E-15, 4.327174794786742882E-16, -1.000000000000000000 ) ) ;
#51 = DIRECTION ( 'NONE',  ( 0.0000000000000000000, -1.000000000000000000, 0.0000000000000000000 ) ) ;
#52 = SECURITY_CLASSIFICATION ( '', '', #142 ) ;
#53 = ADVANCED_FACE ( 'NONE', ( #171, #46 ), #217, .F. ) ;
#54 = DATE_AND_TIME ( #181, #259 ) ;
#55 = CIRCLE ( 'NONE', #135, 1.350000000000006528 ) ;
#56 = CIRCLE ( 'NONE', #157, 1.999999999999996669 ) ;
#57 = CARTESIAN_POINT ( 'NONE',  ( 2.164718430082742680E-13, 1.499999999999988676, 62.00000000000000000 ) ) ;
#58 =( NAMED_UNIT ( * ) PLANE_ANGLE_UNIT ( ) SI_UNIT ( $, .RADIAN. ) );
#59 = DATE_AND_TIME ( #166, #141 ) ;
#60 = CARTESIAN_POINT ( 'NONE',  ( 0.0000000000000000000, 0.0000000000000000000, 0.0000000000000000000 ) ) ;
#61 = CARTESIAN_POINT ( 'NONE',  ( 7.980648415471067334E-14, -2.000000000000003997, 22.85748552250711185 ) ) ;
#62 = DIRECTION ( 'NONE',  ( 0.0000000000000000000, 1.000000000000000000, 0.0000000000000000000 ) ) ;
#63 = CC_DESIGN_PERSON_AND_ORGANIZATION_ASSIGNMENT ( #80, #78, ( #99 ) ) ;
#64 = PLANE ( 'NONE',  #111 ) ;
#65 = ORIENTED_EDGE ( 'NONE', *, *, #116, .T. ) ;
#66 = ORIENTED_EDGE ( 'NONE', *, *, #151, .T. ) ;
#67 = APPROVAL ( #115, 'UNSPECIFIED' ) ;
#68 = DIRECTION ( 'NONE',  ( -3.491481338843133355E-15, 4.327174794786742882E-16, -1.000000000000000000 ) ) ;
#69 = ORIENTED_EDGE ( 'NONE', *, *, #207, .F. ) ;
#70 = DIRECTION ( 'NONE',  ( -3.491481338843133355E-15, 1.224646799147353207E-16, -1.000000000000000000 ) ) ;
#71 = ORIENTED_EDGE ( 'NONE', *, *, #15, .T. ) ;
#72 = CALENDAR_DATE ( 2021, 13, 10 ) ;
#73 = CONICAL_SURFACE ( 'NONE', #222, 2.500000000000004885, 0.2617993877991505736 ) ;
#74 = ORIENTED_EDGE ( 'NONE', *, *, #106, .T. ) ;
#75 =( NAMED_UNIT ( * ) SI_UNIT ( $, .STERADIAN. ) SOLID_ANGLE_UNIT ( ) );
#76 = PRODUCT_RELATED_PRODUCT_CATEGORY ( 'detail', '', ( #153 ) ) ;
#77 = DIRECTION ( 'NONE',  ( 0.0000000000000000000, -1.000000000000000000, 0.0000000000000000000 ) ) ;
#78 = PERSON_AND_ORGANIZATION_ROLE ( 'design_supplier' ) ;
#79 = CONICAL_SURFACE ( 'NONE', #95, 1.499999999999996447, 0.7853981633974480570 ) ;
#80 = PERSON_AND_ORGANIZATION ( #104, #98 ) ;
#81 = COORDINATED_UNIVERSAL_TIME_OFFSET ( 1, 0, .AHEAD. ) ;
#82 = DIRECTION ( 'NONE',  ( -3.491481338843133355E-15, 1.224646799147353207E-16, -1.000000000000000000 ) ) ;
#83 = DIRECTION ( 'NONE',  ( 0.0000000000000000000, 1.000000000000000000, 0.0000000000000000000 ) ) ;
#84 = DIRECTION ( 'NONE',  ( 0.0000000000000000000, -1.000000000000000000, 0.0000000000000000000 ) ) ;
#85 = EDGE_LOOP ( 'NONE', ( #248 ) ) ;
#86 = EDGE_LOOP ( 'NONE', ( #174 ) ) ;
#87 = DIRECTION ( 'NONE',  ( -4.275831445896958607E-31, -1.000000000000000000, -1.224646799147353207E-16 ) ) ;
#88 = CARTESIAN_POINT ( 'NONE',  ( 1.715573629127019036E-15, -1.350000000000003419, 0.4913598162593807439 ) ) ;
#89 = APPLICATION_PROTOCOL_DEFINITION ( 'international standard', 'config_control_design', 1994, #123 ) ;
#90 = CARTESIAN_POINT ( 'NONE',  ( 6.145007156363915967E-14, -7.615827638824668419E-15, 17.60000000000000142 ) ) ;
#91 = CALENDAR_DATE ( 2021, 13, 10 ) ;
#92 = APPROVAL_DATE_TIME ( #54, #122 ) ;
#93 = ADVANCED_FACE ( 'NONE', ( #164 ), #178, .T. ) ;
#94 = PERSON_AND_ORGANIZATION ( #104, #98 ) ;
#95 = AXIS2_PLACEMENT_3D ( 'NONE', #128, #82, #62 ) ;
#96 = PERSON_AND_ORGANIZATION_ROLE ( 'classification_officer' ) ;
#97 = DATE_TIME_ROLE ( 'classification_date' ) ;
#98 = ORGANIZATION ( 'UNSPECIFIED', 'UNSPECIFIED', '' ) ;
#99 = PRODUCT_DEFINITION_FORMATION_WITH_SPECIFIED_SOURCE ( 'ANY', '', #153, .NOT_KNOWN. ) ;
#100 = CARTESIAN_POINT ( 'NONE',  ( 8.632167702983136151E-14, -1.069829533188835666E-14, 24.72351092629158131 ) ) ;
#101 = DIRECTION ( 'NONE',  ( -3.491481338843133355E-15, 1.224646799147353207E-16, -1.000000000000000000 ) ) ;
#102 = ADVANCED_FACE ( 'NONE', ( #43 ), #187, .T. ) ;
#103 = CYLINDRICAL_SURFACE ( 'NONE', #234, 1.350000000000003419 ) ;
#104 = PERSON ( 'UNSPECIFIED', 'UNSPECIFIED', 'UNSPECIFIED', ('UNSPECIFIED'), ('UNSPECIFIED'), ('UNSPECIFIED') ) ;
#105 = ORIENTED_EDGE ( 'NONE', *, *, #198, .F. ) ;
#106 = EDGE_CURVE ( 'NONE', #7, #7, #226, .T. ) ;
#107 = DIRECTION ( 'NONE',  ( 4.275831445896959482E-31, 1.000000000000000000, 1.224646799147353207E-16 ) ) ;
#108 = LOCAL_TIME ( 14, 56, 52.00000000000000000, #183 ) ;
#109 = DIRECTION ( 'NONE',  ( 1.510825004591027855E-30, 1.000000000000000000, 4.327174794786742389E-16 ) ) ;
#110 = AXIS2_PLACEMENT_3D ( 'NONE', #28, #231, #260 ) ;
#111 = AXIS2_PLACEMENT_3D ( 'NONE', #124, #194, #47 ) ;
#112 = FACE_OUTER_BOUND ( 'NONE', #86, .T. ) ;
#113 = EDGE_LOOP ( 'NONE', ( #24 ) ) ;
#114 = CC_DESIGN_PERSON_AND_ORGANIZATION_ASSIGNMENT ( #182, #256, ( #99 ) ) ;
#115 = APPROVAL_STATUS ( 'not_yet_approved' ) ;
#116 = EDGE_CURVE ( 'NONE', #203, #203, #195, .T. ) ;
#117 = APPLICATION_PROTOCOL_DEFINITION ( 'international standard', 'config_control_design', 1994, #140 ) ;
#118 = COORDINATED_UNIVERSAL_TIME_OFFSET ( 1, 0, .AHEAD. ) ;
#119 = AXIS2_PLACEMENT_3D ( 'NONE', #45, #127, #18 ) ;
#120 = APPROVAL_ROLE ( '' ) ;
#121 = FACE_OUTER_BOUND ( 'NONE', #210, .T. ) ;
#122 = APPROVAL ( #12, 'UNSPECIFIED' ) ;
#123 = APPLICATION_CONTEXT ( 'configuration controlled 3d designs of mechanical parts and assemblies' ) ;
#124 = CARTESIAN_POINT ( 'NONE',  ( 6.145007156363915967E-14, 1.499759782661847755E-32, 17.60000000000000142 ) ) ;
#125 = CIRCLE ( 'NONE', #4, 1.350000000000003419 ) ;
#126 = ADVANCED_FACE ( 'NONE', ( #223 ), #22, .F. ) ;
#127 = DIRECTION ( 'NONE',  ( -3.491481338843133355E-15, 1.224646799147353207E-16, -1.000000000000000000 ) ) ;
#128 = CARTESIAN_POINT ( 'NONE',  ( 2.164718430082742680E-13, -7.592810154713590230E-15, 62.00000000000000000 ) ) ;
#129 = CARTESIAN_POINT ( 'NONE',  ( 7.980648415471067334E-14, -9.890833522519565711E-15, 22.85748552250711185 ) ) ;
#130 = EDGE_LOOP ( 'NONE', ( #152 ) ) ;
#131 = EDGE_LOOP ( 'NONE', ( #23 ) ) ;
#132 = PRODUCT_DEFINITION_SHAPE ( 'NONE', 'NONE',  #227 ) ;
#133 = DIRECTION ( 'NONE',  ( 3.491481338843133355E-15, -1.224646799147353207E-16, 1.000000000000000000 ) ) ;
#134 = AXIS2_PLACEMENT_3D ( 'NONE', #168, #225, #228 ) ;
#135 = AXIS2_PLACEMENT_3D ( 'NONE', #172, #68, #205 ) ;
#136 = CC_DESIGN_PERSON_AND_ORGANIZATION_ASSIGNMENT ( #199, #200, ( #227 ) ) ;
#137 = DIRECTION ( 'NONE',  ( 0.0000000000000000000, 0.0000000000000000000, 1.000000000000000000 ) ) ;
#138 = EDGE_LOOP ( 'NONE', ( #191 ) ) ;
#139 = CARTESIAN_POINT ( 'NONE',  ( 0.0000000000000000000, 0.0000000000000000000, 0.0000000000000000000 ) ) ;
#140 = APPLICATION_CONTEXT ( 'configuration controlled 3d designs of mechanical parts and assemblies' ) ;
#141 = LOCAL_TIME ( 14, 56, 52.00000000000000000, #81 ) ;
#142 = SECURITY_CLASSIFICATION_LEVEL ( 'unclassified' ) ;
#143 = CARTESIAN_POINT ( 'NONE',  ( 2.541590561669638548E-15, -8.914699647580411499E-17, 0.7279404685324105673 ) ) ;
#144 = FACE_OUTER_BOUND ( 'NONE', #130, .T. ) ;
#145 = VERTEX_POINT ( 'NONE', #186 ) ;
#146 = CIRCLE ( 'NONE', #37, 1.499999999999996447 ) ;
#147 = CC_DESIGN_SECURITY_CLASSIFICATION ( #52, ( #99 ) ) ;
#148 = DIRECTION ( 'NONE',  ( 3.491481338843133355E-15, -4.327174794786742882E-16, 1.000000000000000000 ) ) ;
#149 = DIRECTION ( 'NONE',  ( -3.851859888774492726E-31, -1.000000000000000000, -1.084202172485510350E-16 ) ) ;
#150 = EDGE_LOOP ( 'NONE', ( #230 ) ) ;
#151 = EDGE_CURVE ( 'NONE', #9, #9, #56, .T. ) ;
#152 = ORIENTED_EDGE ( 'NONE', *, *, #11, .T. ) ;
#153 = PRODUCT ( '960144', '960144', '', ( #31 ) ) ;
#154 = ADVANCED_FACE ( 'NONE', ( #21, #204 ), #79, .T. ) ;
#155 = CARTESIAN_POINT ( 'NONE',  ( 7.178073304462827080E-14, -8.896160358254929746E-15, 20.55881904510252411 ) ) ;
#156 = DATE_AND_TIME ( #72, #108 ) ;
#157 = AXIS2_PLACEMENT_3D ( 'NONE', #263, #233, #26 ) ;
#158 = CLOSED_SHELL ( 'NONE', ( #93, #244, #102 ) ) ;
#159 = CALENDAR_DATE ( 2021, 13, 10 ) ;
#160 = DATE_AND_TIME ( #159, #42 ) ;
#161 = APPROVAL ( #17, 'UNSPECIFIED' ) ;
#162 = UNCERTAINTY_MEASURE_WITH_UNIT (LENGTH_MEASURE( 1.000000000000000082E-05 ), #254, 'distance_accuracy_value', 'NONE');
#163 = CIRCLE ( 'NONE', #218, 1.350000000000003419 ) ;
#164 = FACE_OUTER_BOUND ( 'NONE', #175, .T. ) ;
#165 = CC_DESIGN_DATE_AND_TIME_ASSIGNMENT ( #240, #219, ( #227 ) ) ;
#166 = CALENDAR_DATE ( 2021, 13, 10 ) ;
#167 = ADVANCED_FACE ( 'NONE', ( #19, #173 ), #261, .T. ) ;
#168 = CARTESIAN_POINT ( 'NONE',  ( 2.164718430082742680E-13, 1.124819836996379248E-32, 62.00000000000000000 ) ) ;
#169 = FACE_BOUND ( 'NONE', #180, .T. ) ;
#170 = CC_DESIGN_APPROVAL ( #122, ( #99 ) ) ;
#171 = FACE_OUTER_BOUND ( 'NONE', #138, .T. ) ;
#172 = CARTESIAN_POINT ( 'NONE',  ( 7.087707117851561342E-14, -8.784164833417087735E-15, 20.30000000000000071 ) ) ;
#173 = FACE_OUTER_BOUND ( 'NONE', #48, .T. ) ;
#174 = ORIENTED_EDGE ( 'NONE', *, *, #116, .F. ) ;
#175 = EDGE_LOOP ( 'NONE', ( #74 ) ) ;
#176 = APPROVAL_PERSON_ORGANIZATION ( #221, #67, #34 ) ;
#177 = AXIS2_PLACEMENT_3D ( 'NONE', #20, #50, #109 ) ;
#178 = CONICAL_SURFACE ( 'NONE', #245, 1.999999999999989120, 1.221730476396026388 ) ;
#179 = DIRECTION ( 'NONE',  ( -3.491481338843133355E-15, 4.327174794786742882E-16, -1.000000000000000000 ) ) ;
#180 = EDGE_LOOP ( 'NONE', ( #69 ) ) ;
#181 = CALENDAR_DATE ( 2021, 13, 10 ) ;
#182 = PERSON_AND_ORGANIZATION ( #104, #98 ) ;
#183 = COORDINATED_UNIVERSAL_TIME_OFFSET ( 1, 0, .AHEAD. ) ;
#184 = DIRECTION ( 'NONE',  ( 0.0000000000000000000, -1.000000000000000000, 0.0000000000000000000 ) ) ;
#185 = DIRECTION ( 'NONE',  ( -3.491481338843133355E-15, 1.224646799147353207E-16, -1.000000000000000000 ) ) ;
#186 = CARTESIAN_POINT ( 'NONE',  ( 6.145007156363915967E-14, -1.350000000000010969, 17.60000000000000142 ) ) ;
#187 = PLANE ( 'NONE',  #258 ) ;
#188 = DIRECTION ( 'NONE',  ( 3.491481338843133355E-15, -4.327174794786742882E-16, 1.000000000000000000 ) ) ;
#189 = AXIS2_PLACEMENT_3D ( 'NONE', #155, #229, #208 ) ;
#190 = ORIENTED_EDGE ( 'NONE', *, *, #207, .T. ) ;
#191 = ORIENTED_EDGE ( 'NONE', *, *, #36, .F. ) ;
#192 = APPROVAL_PERSON_ORGANIZATION ( #201, #122, #238 ) ;
#193 = CLOSED_SHELL ( 'NONE', ( #167, #154, #126, #30, #220, #53, #262 ) ) ;
#194 = DIRECTION ( 'NONE',  ( 3.491481338843133355E-15, -1.224646799147353207E-16, 1.000000000000000000 ) ) ;
#195 = CIRCLE ( 'NONE', #224, 1.999999999999994005 ) ;
#196 = VERTEX_POINT ( 'NONE', #243 ) ;
#197 = VERTEX_POINT ( 'NONE', #57 ) ;
#198 = EDGE_CURVE ( 'NONE', #197, #197, #146, .T. ) ;
#199 = PERSON_AND_ORGANIZATION ( #104, #98 ) ;
#200 = PERSON_AND_ORGANIZATION_ROLE ( 'creator' ) ;
#201 = PERSON_AND_ORGANIZATION ( #104, #98 ) ;
#202 = LOCAL_TIME ( 14, 56, 52.00000000000000000, #10 ) ;
#203 = VERTEX_POINT ( 'NONE', #61 ) ;
#204 = FACE_BOUND ( 'NONE', #150, .T. ) ;
#205 = DIRECTION ( 'NONE',  ( 0.0000000000000000000, 1.000000000000000000, 0.0000000000000000000 ) ) ;
#206 = FACE_OUTER_BOUND ( 'NONE', #113, .T. ) ;
#207 = EDGE_CURVE ( 'NONE', #29, #29, #216, .T. ) ;
#208 = DIRECTION ( 'NONE',  ( 0.0000000000000000000, 1.000000000000000000, 0.0000000000000000000 ) ) ;
#209 = ORIENTED_EDGE ( 'NONE', *, *, #151, .F. ) ;
#210 = EDGE_LOOP ( 'NONE', ( #239 ) ) ;
#211 = CARTESIAN_POINT ( 'NONE',  ( 2.164718430082742680E-13, -7.592810154713590230E-15, 62.00000000000000000 ) ) ;
#212 = CARTESIAN_POINT ( 'NONE',  ( 7.178073304462827080E-14, 1.384074173710929667, 20.55881904510252411 ) ) ;
#213 = APPROVAL_DATE_TIME ( #160, #67 ) ;
#214 = MANIFOLD_SOLID_BREP ( 'Corps-Déplacer/Copier1[1]', #193 ) ;
#215 = DESIGN_CONTEXT ( 'detailed design', #140, 'design' ) ;
#216 = CIRCLE ( 'NONE', #189, 1.384074173710938549 ) ;
#217 = TOROIDAL_SURFACE ( 'NONE', #110, 2.350000000000006750, 1.000000000000000444 ) ;
#218 = AXIS2_PLACEMENT_3D ( 'NONE', #237, #185, #184 ) ;
#219 = DATE_TIME_ROLE ( 'creation_date' ) ;
#220 = ADVANCED_FACE ( 'NONE', ( #169, #112 ), #73, .T. ) ;
#221 = PERSON_AND_ORGANIZATION ( #104, #98 ) ;
#222 = AXIS2_PLACEMENT_3D ( 'NONE', #100, #188, #51 ) ;
#223 = FACE_OUTER_BOUND ( 'NONE', #232, .T. ) ;
#224 = AXIS2_PLACEMENT_3D ( 'NONE', #129, #148, #84 ) ;
#225 = DIRECTION ( 'NONE',  ( -3.491481338843133355E-15, 1.224646799147353207E-16, -1.000000000000000000 ) ) ;
#226 = CIRCLE ( 'NONE', #119, 1.350000000000003419 ) ;
#227 = PRODUCT_DEFINITION ( 'UNKNOWN', '', #99, #215 ) ;
#228 = DIRECTION ( 'NONE',  ( 4.275831445896958607E-31, 1.000000000000000000, 1.224646799147353207E-16 ) ) ;
#229 = DIRECTION ( 'NONE',  ( -3.491481338843133355E-15, 4.327174794786742882E-16, -1.000000000000000000 ) ) ;
#230 = ORIENTED_EDGE ( 'NONE', *, *, #198, .T. ) ;
#231 = DIRECTION ( 'NONE',  ( -3.491481338843133355E-15, 4.327174794786742882E-16, -1.000000000000000000 ) ) ;
#232 = EDGE_LOOP ( 'NONE', ( #105 ) ) ;
#233 = DIRECTION ( 'NONE',  ( -3.491481338843133355E-15, 1.224646799147353207E-16, -1.000000000000000000 ) ) ;
#234 = AXIS2_PLACEMENT_3D ( 'NONE', #60, #179, #1 ) ;
#235 = CC_DESIGN_PERSON_AND_ORGANIZATION_ASSIGNMENT ( #94, #96, ( #52 ) ) ;
#236 = CARTESIAN_POINT ( 'NONE',  ( 2.147261023388527077E-13, 1.999999999999989120, 61.50000000000000000 ) ) ;
#237 = CARTESIAN_POINT ( 'NONE',  ( 6.145007156363915967E-14, -7.615827638824668419E-15, 17.60000000000000142 ) ) ;
#238 = APPROVAL_ROLE ( '' ) ;
#239 = ORIENTED_EDGE ( 'NONE', *, *, #11, .F. ) ;
#240 = DATE_AND_TIME ( #91, #202 ) ;
#241 = EDGE_LOOP ( 'NONE', ( #190 ) ) ;
#242 = APPROVAL_DATE_TIME ( #59, #161 ) ;
#243 = CARTESIAN_POINT ( 'NONE',  ( 7.087707117851561342E-14, 1.349999999999997646, 20.30000000000000071 ) ) ;
#244 = ADVANCED_FACE ( 'NONE', ( #246, #206 ), #103, .T. ) ;
#245 = AXIS2_PLACEMENT_3D ( 'NONE', #143, #35, #149 ) ;
#246 = FACE_OUTER_BOUND ( 'NONE', #25, .T. ) ;
#247 = CARTESIAN_POINT ( 'NONE',  ( 0.0000000000000000000, 0.0000000000000000000, 0.0000000000000000000 ) ) ;
#248 = ORIENTED_EDGE ( 'NONE', *, *, #15, .F. ) ;
#249 = AXIS2_PLACEMENT_3D ( 'NONE', #139, #137, #27 ) ;
#250 = CARTESIAN_POINT ( 'NONE',  ( 6.145007156363915967E-14, -1.350000000000010969, 17.60000000000000142 ) ) ;
#251 = EDGE_LOOP ( 'NONE', ( #209 ) ) ;
#252 = PERSON_AND_ORGANIZATION ( #104, #98 ) ;
#253 = CC_DESIGN_APPROVAL ( #67, ( #227 ) ) ;
#254 =( LENGTH_UNIT ( ) NAMED_UNIT ( * ) SI_UNIT ( .MILLI., .METRE. ) );
#255 = DIRECTION ( 'NONE',  ( -3.491481338843133355E-15, 1.224646799147353207E-16, -1.000000000000000000 ) ) ;
#256 = PERSON_AND_ORGANIZATION_ROLE ( 'creator' ) ;
#257 = CC_DESIGN_APPROVAL ( #161, ( #52 ) ) ;
#258 = AXIS2_PLACEMENT_3D ( 'NONE', #40, #133, #87 ) ;
#259 = LOCAL_TIME ( 14, 56, 52.00000000000000000, #14 ) ;
#260 = DIRECTION ( 'NONE',  ( 1.510825004591027679E-30, 1.000000000000000000, 4.327174794786742882E-16 ) ) ;
#261 = CYLINDRICAL_SURFACE ( 'NONE', #13, 1.999999999999994005 ) ;
#262 = ADVANCED_FACE ( 'NONE', ( #144 ), #64, .F. ) ;
#263 = CARTESIAN_POINT ( 'NONE',  ( 2.147261023388527077E-13, -7.531577814756222656E-15, 61.50000000000000000 ) ) ;
ENDSEC;
END-ISO-10303-21;
